Song name
# A B C D E F G H I J K L M N O P Q R S T U V W X Y Z

Bon Iver - Minnesota Wi tab

Tuning:

E-B-D#-F#-B-e

Capo IV


e | ------------------- |
B | -0~---------------- |
F#| ---------2~-------- |
D#| ----3~------------- | 
B | ------------4~----- | 
E | ------------------- |

e | ------------------- |
B | ------------------- |
F#| ------------------- |
D#| -5-5p3-5~--3s0-0--- | 
B | ------------------- | 
E | ------------------- |

e | ----------------------------- |
B | ----------------------------- |
F#| ----------------------------- |
D#| ----------------------------- | 
B | --------------0---4p2p0------ | 
E | -4-4-4-2-4-4------------4---- |

e | ------------------------------------------------------ |
B | --5-----5-----5--------------5-----5-----5------------ |
F#| ------5-----5-----5------5-------5-----5-----5---5---- |
D#| ----5-----5-----5------5---5---5-----5-----5---5---5-- |
B | ------------------------------------------------------ | 
E | ------------------------------------------------------ |


e | ------------------------------------------------------ |
B | --4-----4-----4--------------4-----4-----4------------ |
F#| ------5-----5-----5------5-------5-----5-----5---5---- |
D#| ----5-----5-----5------5---5---5-----5-----5---5---5-- |
B | ------------------------------------------------------ | 
E | ------------------------------------------------------ |

e | ------------------------------------------------------ |
B | --2-----2-----2--------------2-----2-----2------------ |
F#| ------4-----4-----4------4-------4-----4-----4---4---- |
D#| ----3-----3-----3------3---3---3-----3-----3---3---3-- |
B | ------------------------------------------------------ | 
E | ------------------------------------------------------ |

e | ------------------------------------------------------ |
B | --4-----4-----4--------------4-----4-----4------------ |
F#| ------5-----5-----5------5-------5-----5-----5---5---- |
D#| ----5-----5-----5------5---5---5-----5-----5---5---5-- |
B | ------------------------------------------------------ | 
E | ------------------------------------------------------ |
Tap to rate this tab
# A B C D E F G H I J K L M N O P Q R S T U V W X Y Z