Song name
# A B C D E F G H I J K L M N O P Q R S T U V W X Y Z

Bon Iver - Skinny Love tab

This is my first tab and it took me along
time to find out how to play it right so i
wanted to help everyone so you can play it
right. Everything is relative to capo so
there is NO FUNNY TUNING.


Skinny Love by Bon Iver
Standard Tuning
Capo 5 except high e string

/ - Slide
p - Pull Off
^ - Up Strum
blank - down strum

Intro
  e |--------------------------------------------------------|
  B |--0-0---0-0-0-0-0---0-0-0-0-0---------------------------|
  G |--0-0---0-0-0-0-0---0-0-0-0-0--2-4-2---2-4-2------------|
  D |--2-2-/-5-5-5-5-5---5-5-5-5-5--------5-------5----------|
  A |--2-2-/-5-5-5-5-5---2-2-2-2-2---------------------------|
  E |--0-0---0-0-0-0-0---3-3-3-3-2---------------------------|
             ^   ^       ^   ^
  e |--------------------------------------------------------|
  B |--0-0---0-0-0-0-0---0-0-0-0-0--3-5-3--------------------|
  G |--0-0---0-0-0-0-0---0-0-0-0-0--------4--2-4-2-----------|
  D |--2-2-/-5-5-5-5-5---5-5-5-5-5-----------------5---------|
  A |--2-2-/-5-5-5-5-5---2-2-2-2-2---------------------------|
  E |--0-0---0-0-0-0-0---3-3-3-3-2---------------------------|
             ^   ^       ^   ^
  e |--------------------------------0-0-0-0--0-0-0-0--------|
  B |--0-0---0-0-0-0-0---0-0-0-0-0---1-1-1-1--0-0-0-0--------|
  G |--0-0---0-0-0-0-0---0-0-0-0-0---------------------------|
  D |--2-2-/-5-5-5-5-5---5-5-5-5-5---------------------------|
  A |--2-2-/-5-5-5-5-5---2-2-2-2-2---------------------------|
  E |--0-0---0-0-0-0-0---3-3-3-3-2---------------------------|
             ^   ^       ^   ^         ^   ^    ^   ^
  e |---------------------------------------------|
  B |--0-0---0-0-0-0-0---0-0-0-0-0--0-0-0-0-0-----|
  G |--0-0---0-0-0-0-0---0-0-0-0-0--0-0-0-0-0-----|
  D |--2-2-/-5-5-5-5-5---5-5-5-5-5--5-5-5-5-5-----|  X2
  A |--2-2-/-5-5-5-5-5---2-2-2-2-2--2-2-2-2-2-----|
  E |--0-0---0-0-0-0-0---3-3-3-3-2--3-3-3-3-3-----|
             ^   ^       ^   ^      ^   ^
Verse 1 & the rest of song
  e |---------------------------------------------|
  B |--0-0---0-0-0-0-0---0-0-0-0-0--0-0-0-0-0-----|
  G |--0-0---0-0-0-0-0---0-0-0-0-0--0-0-0-0-0-----|
  D |--2-2-/-5-5-5-5-5---5-5-5-5-5--0-0-0-0-0-----|  X3
  A |--2-2-/-5-5-5-5-5---2-2-2-2-2--5-5-5-5-5-----|
  E |--0-0---0-0-0-0-0---3-3-3-3-2--3-3-3-3-3-----|
             ^   ^       ^   ^      ^   ^
  e |--------------------------------------------------------|
  B |--0-0---0-0-0-0-0---0-0-0-0-0--0-0-0-0-0----------------|
  G |--0-0---0-0-0-0-0---0-0-0-0-0--0-0-0-0-0----------------|
  D |--2-2-/-5-5-5-5-5---5-5-5-5-5--0-0-0-0-0----------------|
  A |--2-2-/-5-5-5-5-5---2-2-2-2-2--5-5-5-5-5---5p2----------|
  E |--0-0---0-0-0-0-0---3-3-3-3-2--3-3-3-3-3-------5p0--3-0-|
             ^   ^       ^   ^      ^   ^
  e |---------------------------------------------|
  B |--0-0---0-0-0-0-0---0-0-0-0-0--0-0-0-0-0-----|
  G |--0-0---0-0-0-0-0---0-0-0-0-0--0-0-0-0-0-----|
  D |--2-2-/-5-5-5-5-5---5-5-5-5-5--0-0-0-0-0-----|  X4
  A |--2-2-/-5-5-5-5-5---2-2-2-2-2--5-5-5-5-5-----|
  E |--0-0---0-0-0-0-0---3-3-3-3-2--3-3-3-3-3-----|
             ^   ^       ^   ^      ^   ^

  e |--------------------------------0-0-0-0--0-0-0-0---|
  B |--0-0---0-0-0-0-0---0-0-0-0-0---1-1-1-1--0-0-0-0---|
  G |--0-0---0-0-0-0-0---0-0-0-0-0----------------------|
  D |--2-2-/-5-5-5-5-5---5-5-5-5-5----------------------|
  A |--2-2-/-5-5-5-5-5---2-2-2-2-2----------------------|
  E |--0-0---0-0-0-0-0---3-3-3-3-2----------------------|
             ^   ^       ^   ^         ^   ^    ^   ^
  e |---------------------------------------------|
  B |--0-0---0-0-0-0-0---0-0-0-0-0--0-0-0-0-0-----|
  G |--0-0---0-0-0-0-0---0-0-0-0-0--0-0-0-0-0-----|
  D |--2-2-/-5-5-5-5-5---5-5-5-5-5--0-0-0-0-0-----|  X2
  A |--2-2-/-5-5-5-5-5---2-2-2-2-2--5-5-5-5-5-----|
  E |--0-0---0-0-0-0-0---3-3-3-3-2--3-3-3-3-3-----|
             ^   ^       ^   ^      ^   ^
e |-----------------------------------------------------|
  B |--0-0---0-0-0-0-0---0-0-0-0-0----------------------|
  G |--0-0---0-0-0-0-0---0-0-0-0-0--2-4-2---2-4-2-------|
  D |--2-2-/-5-5-5-5-5---5-5-5-5-5--------5-------5-----|
  A |--2-2-/-5-5-5-5-5---2-2-2-2-2----------------------|
  E |--0-0---0-0-0-0-0---3-3-3-3-2----------------------|
             ^   ^       ^   ^
  e |----------------------------------------------------|
  B |--0-0---0-0-0-0-0---0-0-0-0-0--3-5-3----------------|
  G |--0-0---0-0-0-0-0---0-0-0-0-0--------4--2-4-2-------|
  D |--2-2-/-5-5-5-5-5---5-5-5-5-5-----------------5-----|
  A |--2-2-/-5-5-5-5-5---2-2-2-2-2-----------------------|
  E |--0-0---0-0-0-0-0---3-3-3-3-2-----------------------|
             ^   ^       ^   ^
  e |--------------------------------0-0-0-0--0-0-0-0-----|
  B |--0-0---0-0-0-0-0---0-0-0-0-0---1-1-1-1--0-0-0-0-----|
  G |--0-0---0-0-0-0-0---0-0-0-0-0------------------------|
  D |--2-2-/-5-5-5-5-5---5-5-5-5-5------------------------|
  A |--2-2-/-5-5-5-5-5---2-2-2-2-2------------------------|
  E |--0-0---0-0-0-0-0---3-3-3-3-2------------------------|
             ^   ^       ^   ^         ^   ^    ^   ^
Tap to rate this tab
# A B C D E F G H I J K L M N O P Q R S T U V W X Y Z