Song name
# A B C D E F G H I J K L M N O P Q R S T U V W X Y Z

Bon Iver - Skinny Love chords

Artist: Bon Iver
Song: Skinny Love (Ver 1)

-----------------------------------------------------------------------
                  SKINNY LOVE - Bon Iver
-----------------------------------------------------------------------

Tune to CGEGCC.  

Intro:
                   Fill #1  
C|--0-----0---0---24202420--|
C|--0-----0---0---22202220--|
G|--2-----5---0---00000000--|
E|--0-----0---0-------------|
G|--2-----5---0-------------|
C|--x-----x---0-------------|

                   Fill #2  
C|--0-----0---0---79702420--|
C|--0-----0---0---77702220--|
G|--2-----5---0---00000000--|
E|--0-----0---0-------------|
G|--2-----5---0-------------|
C|--x-----x---0-------------|

                   Fill #3
C|--0-----0---0---00000-----0----0---0----|
C|--0-----0---0---55544-----0----0---0----|
G|--2-----5---0---55555-----7----2---5----|
E|--0-----0---0---00000-----7----0---0----|
G|--2-----5---0-----------2/7----2---5----|
C|--x-----x---0-------------x----x---x----|


Verse:

C|--0-------------0------------------0---------------|
C|--0-------------0------------------0---------------|
G|--2-------------5------------------0---------------|
E|--0-------------0------------------0---------------|
G|--2-------------5------------------0---------------|
C|--x-------------x------------------0---------------|
    Come on skinny love just last the year

C|--0-------------0------------------0---------------|
C|--0-------------0------------------0---------------|
G|--2-------------5------------------0---------------|
E|--0-------------0------------------0---------------|
G|--2-------------5------------------0---------------|
C|--x-------------x------------------0---------------|
    Pour a little salt we were never here

C|--0-------------0------------------0---------------|
C|--0-------------0------------------0---------------|
G|--2-------------5------------------0---------------|
E|--0-------------0------------------0---------------|
G|--2-------------5------------------0---------------|
C|--x-------------x------------------0---------------|
    My, my, my, my, my, my, my, my

C|-----------------0-----------------------0------0-------------------------|
C|-----------------0-----------------------0------0-------------------------|
G|-----------------7-----------------------2------5-------------------------|
E|-----------------7-----------------------0------0-------------------------|
G|---------------2/7-----------------------2------5-------------------------|
C|-----------------x-----------------------x------x-------------------------|
    Staring at the sink of blood and crushed veneer


Verse 2: 
 
C|--0-------------0------------------0---------------|
C|--0-------------0------------------0---------------|
G|--2-------------5------------------0---------------|
E|--0-------------0------------------0---------------|
G|--2-------------5------------------0---------------|
C|--x-------------x------------------0---------------|
    I tell my love to wreck it all

C|--0-------------0------------------0---------------|
C|--0-------------0------------------0---------------|
G|--2-------------5------------------0---------------|
E|--0-------------0------------------0---------------|
G|--2-------------5------------------0---------------|
C|--x-------------x------------------0---------------|
    Cut out all the ropes and let me fall

C|--0-------------0------------------0---------------|
C|--0-------------0------------------0---------------|
G|--2-------------5------------------0---------------|
E|--0-------------0------------------0---------------|
G|--2-------------5------------------0---------------|
C|--x-------------x------------------0---------------|
    My, my, my, my, my, my, my, my

C|-----------------0-----------------------0------0-------------------------|
C|-----------------0-----------------------0------0-------------------------|
G|-----------------7-----------------------2------5-------------------------|
E|-----------------7-----------------------0------0-------------------------|
G|---------------2/7-----------------------2------5-------------------------|
C|-----------------x-----------------------x------x-------------------------|
    Right in this moment this order's tall


Chorus:  
   I told you to be patient...
C|----0----0----0----0-----|
C|----0----0----0----0-----|
G|----7----0----0----7-----|
E|----8----3----1----7-----|
G|----9----4----2----7-----|
C|----0----0----x----x-----|
      

Outro:
  Who will love you, who will fight...
C|----0----0----0----0-----|
C|----0----0----0----0-----|
G|----7----0----0----7-----|
E|----8----3----1----7-----|
G|----9----4----2----7-----|
C|----0----0----x----x-----|
Tap to rate this tab
 
# A B C D E F G H I J K L M N O P Q R S T U V W X Y Z