Song name
# A B C D E F G H I J K L M N O P Q R S T U V W X Y Z

Bon Iver - Skinny Love Live tab

Artist: Bon Iver
Song: Skinny Love (live) (Glastonbury 28-06-09)
Video: http://www.youtube.com/watch?v=5l8otWSs3Ro
Transcription: satir3, satir3@net.hr

Tuning: C G E G C C 
Note I: how to tune
(low E - 4 half steps down)
(A - 2 half steps down)
(D - 2 half steps up)
(G - same)
(B - 1 half step up)
(e - 4 half steps down)

Capo: NO capo

Intro:

C|--0----0----0----24202420--|
C|--0----0----0----22202220--|
G|--2----5----0----00000000--|
E|--0----0----0--------------|
G|--2----5----0--------------|
C|--x----x----0--------------|

C|--0----0----0----79702420--|
C|--0----0----0----77702220--|
G|--2----5----0----00000000--|
E|--0----0----0--------------|
G|--2----5----0--------------|
C|--x----x----0--------------|

C|--0----0----0----00000--|----0----0----0----0--|--0----0-...--|
C|--0----0----0----55544--|----0----0----0----0--|--0----0-...--|
G|--2----5----0----55555--|----7----7----2----2--|--5----0-...--|
E|--0----0----0----00000--|----7----7----0----0--|--0----0-...--|
G|--2----5----0-----------|--2/7----7----2----2--|--5----0-...--|
C|--x----x----0-----------|----x----x----x----x--|--x----0-...--|
                                                       till the verse 
Verse 1:
Come on skinny love just last the year
Pour a little salt, we were never here
My, my, my, my, my, my, my, my

C|--0----0----0----0--|
C|--0----0----0----0--|
G|--2----5----0----0--|   
E|--0----0----0----0--|
G|--2----5----0----0--|
C|--x----x----0----0--|   x3

Break-verse 1:
Staring at the sink of blood and crushed veneer

C|----0----0----0----0--|--0----0----0----------------------|
C|----0----0----0----0--|--0----0----0----------------------|
G|----7----7----2----2--|--5----5----5----------------------|
E|----7----7----0----0--|--5----5----5----3p0---------------|
G|--2/7----7----2----2--|--5----5----5---------7p0--5p0--0--|
C|----x----x----x----x--|--x----x----x----------------------|

Verse 2:
Tell my love to wreck it all
Cut out all the ropes and let me fall
My, my, my, my, my, my, my, my

C|--0----0----0----0--|
C|--0----0----0----0--|
G|--2----5----0----0--|   
E|--0----0----0----0--|
G|--2----5----0----0--|
C|--x----x----0----0--|   x3

Break-verse 2:
Right in this moment this order's tall

C|----0----0----0----0--|--0----0----0----0--|
C|----0----0----0----0--|--0----0----0----0--|
G|----7----7----2----2--|--5----5----5----5--|
E|----7----7----0----0--|--5----5----5----5--|
G|--2/7----7----2----2--|--5----5----5----5--|
C|----x----x----x----x--|--x----x----x----x--|

Chorus 1: 
And I told you to be patient, and I told you to be fine
And I told you to be balanced, and I told you to be kind
In the morning I'll be with you, but it will be a different kind
I'll be holding all the tickets, and you'll be owning all the fines

C|--0----0----0----0--|
C|--0----0----0----0--|
G|--7----7----4----2--|   
E|--8----8----3----1--|
G|--9----9----4----2--|
C|--x----x----x----x--|   x4

Verse 3:
Come on skinny love, what happened here?
Suckle on the hope in lite brassieres
My, my, my, my, my, my, my, my

C|--0----0----0----0--|
C|--0----0----0----0--|
G|--2----5----0----0--|   
E|--0----0----0----0--|
G|--2----5----0----0--|
C|--x----x----0----0--|   x3

Break-verse 3:
Sullen load is full, so slow on the split

C|----0----0----0----0--|--0----0----0----0--|
C|----0----0----0----0--|--0----0----0----0--|
G|----7----7----2----2--|--5----5----5----5--|
E|----7----7----0----0--|--5----5----5----5--|
G|--2/7----7----2----2--|--5----5----5----5--|
C|----x----x----x----x--|--x----x----x----x--|

Chorus 2:
And I told you to be patient, and I told you to be fine
And I told you to be balanced, and I told you to be kind
And now all your love is wasted, and then who the hell was I?
And I'm breaking at the britches, and at the end of all your lines

C|--0----0----0----0--|
C|--0----0----0----0--|
G|--7----7----4----2--|   
E|--8----8----3----1--|
G|--9----9----4----2--|
C|--x----x----x----x--|   x4

C|--0----0----0--|
C|--0----0----0--|
G|--0----2----0--|   
E|--1----1----1--|
G|--2----2----2--|
C|--x----x----x--|

Bridge:
Who will love you? Who will fight?
Who will fall far behind?

C|--0----0----0----0--|
C|--0----0----0----0--|
G|--7----7----4----2--|   
E|--8----8----3----1--|
G|--9----9----4----2--|
C|--x----x----x----x--|   x2

C|--0----0----0--|
C|--0----0----0--|
G|--0----2----0--|   
E|--1----1----1--|
G|--2----2----2--|
C|--x----x----x--|

Ending:

C|--0----0----0----24202420--|
C|--0----0----0----22202220--|
G|--2----5----0----00000000--|
E|--0----0----0--------------|
G|--2----5----0--------------|
C|--x----x----0--------------|

C|--0----0----0----79702420--|
C|--0----0----0----77702220--|
G|--2----5----0----00000000--|
E|--0----0----0--------------|
G|--2----5----0--------------|
C|--x----x----0--------------|

C|--0----0----0----00000--|----0----0----0----0--|--0----0--|
C|--0----0----0----55544--|----0----0----0----0--|--0----0--|
G|--2----5----0----55555--|----7----7----2----2--|--5----5--|
E|--0----0----0----00000--|----7----7----0----0--|--5----5--|
G|--2----5----0-----------|--2/7----7----2----2--|--5----5--|
C|--x----x----0-----------|----x----x----x----x--|--x----x--|

Tap to rate this tab
 
# A B C D E F G H I J K L M N O P Q R S T U V W X Y Z