Song name
# A B C D E F G H I J K L M N O P Q R S T U V W X Y Z

Bon Jovi - She Dont Know Me tab

Song: She Dont Know Me
Album: Bon Jovi (1984)
Artist: Bon Jovi
Songwriters: Marc Avsec 
Tuning: Standard
Tabber: Jeppe

| ~  vibrato

Intro
e|-------------------------------------------------------------------------|
B|--8--6--9--8~----8--6--9--8~----8--6--6--8~----8--6--6--8~---------------|
G|-------------------------------------------------------------------------|
D|-------------------------------------------------------------------------|
A|-----------------------------------------------------------6--6--8-------|
E|-----------------------------------------------------------4--3--6-------|

Verse (No Guitar)
Chours 
e|-------------------------------------------------------------------------|
B|--8--6--9--8~----8--6--9--8~----8--6--6--8~----8--6--6--8~---------------|
G|-------------------------------------------------------------------------|
D|-------------------------------------------------------------------------|
A|-------------------------------------------------------------------------|
E|-------------------------------------------------------------------------|

e|-------------------------------------------------------------------------|
B|---8--6--6--8~-----8--6--6--8~----6--6--8--6~----6--6--8--6~-------------|
G|---5--3--3--5~-----5--3--3--5~----3--3--5--3~----3--3--5--3~-------------|
D|-------------------------------------------------------------6-6--8------|
A|-------------------------------------------------------------6-6--8------|
E|-------------------------------------------------------------4-3--6------|

Verse
Chours
Bridge
e|-------------------------------------------------------------------------|
B|-------------------------------------------------------------------------|
G|-------------------------------------------------------------------------|
D|--------------------------------------x-10-------------------------------|
A|--8--6----8--6--10-------------------------------------------------------|
E|--6--4----6--4--8--------------------------------------------------------|
Solo
e|-------------------------------------------------------------------------|
B|--16-15-------16-15-------16-15-------16-15------------------------------|
G|--------17-15-------17-15-------17-15-------17-15------------------x8----|
D|-------------------------------------------------------------------------|
A|-------------------------------------------------------------------------|
E|-------------------------------------------------------------------------|

Chours x 2 

This tab is 100 % correct ! Any question email me on jeppe_killen@hotmail.com


Tap to rate this tab
 
# A B C D E F G H I J K L M N O P Q R S T U V W X Y Z