Song name
# A B C D E F G H I J K L M N O P Q R S T U V W X Y Z

Bon Jovi - Dirty Little Secret tab

Tuning: Standard i.e 6 = E
                     5 = A
                     4 = D
                     3 = G
                     2 = B
                     1 = e

Tabbed by Joycer.

r = release
s and\ = slide
H = Hammer on
b full= Full Bend
b 1/2 = 1/2 Bend
b 1/4 = 1/4 Bend
xxx = Rake
(12) = Ghost note
^^^^^ = Vibrato

Great song, should have made the album as an original track instead as a B-Side.

intro:
A5

|----------------------------------------|
|----------------------------------------|
|----------------------------------------|
|--5-H-7---------5-H-7---------5-H-7-----|     X3
|--0---0-0-0-0-0-0---0-0-0-0-0-0---0-0-0-|
|----------------------------------------|
                           Verse 1:   I light a
|---------------------------------------------------|
|---------------------------------------------------|
|----------------9--9--9--9--9--9--9--9--9--9--9--9-|
|----------------7--7--7--7--7--7--7--7--7--7--7--7-|
|---0--0--0--0---0--0--0--0--0--0--0--0--0--0--0--0-|
|---------------------------------------------------|

 A5            F5                          G5
candle in the garden of love to blind the angels
        F5
looking down from above.
A5                F5                               G5
I want i need the fruit of your vine, it tastes so bitter sweet,
      F5
cos I know it's not mine.
     (A5)
                                     I want to come in side
(6)E|-3/5-5-5-5-5-3/5-5-5-5-5-3/5-5-5|                   |-3/5-5-5-5-5-3/5..

CHORUS:
F                           G                               Am
Hit    the    lights,         and i'll come crawling to your window
  w/distortion + slide
e|-8------------------8\7--|--------------------------------|----|
B|-------------------------|--------------------------------|----|
G|-------------------10\9--|--------------------------------|----|
D|-10----------------------|--------------------------------|----|
           G                 F                      G
 to night.       Come on and send the sign,           I'll be your dirty
 -----7\-s-\3----------------|-8-------------8\7---|--|
 ----------------------------|---------------------|--|
 -----9\-s-\5----------------|---------------------|--|
 ----------------------------|-10------------10\9--|--|
        Am                         G                    F
 little secret and you'll be mine.____       You got me knock,knock,
 |-------------------------7\--s--|\3-------------------|-8-------|
 |--------------------------------|---------------------|---------|
 |--------------------------------|---------------------|-10------|
 |-------------------------9\--s--|\5-------------------|---------|
               G                         Am(use bar cords till end of chours)
 Knocking_____ at your door, and I'll be coming back for more.
 -------10-\|\-7------------------|
 -----------|---------------------|
 -----------|---------------------|
 -------12-\|\-9------------------|
 G                              F       G                       A5(play intro
    We made a promise and we'll keep it, our dirty little secret. riff here)

 Verse 2:
 We'll act like strangers when you're holding his hand, cause there's
 a danger that we both understand.
 We run like thiefs through the temple of sin, till we fall on our knees,
 then you go back to him.
 I want to feel alive.

Chorus:
Hit the lights and i'll come crawling to your window to night.
Come on and send the sign, i'll be your dirty little secret and you'll
be mine. you got me knock,knock, knocking at your door and i'll keep
coming back for more. we made a promise and we'll keep it, our dirty little
secret.  Huh.

SOLO:
  A5
e|--15b full------------------15b-full---|--15b-full---------------------|
B|--15------------------------15---------|--15---------13-15\13------17--|
G|---------------------------------------|---------------------14----17--|
D|---------------------------------------|-------------------------------|
A|---------------------------------------|-------------------------------|
E|---------------------------------------|-------------------------------|
         P.H --|         P.H --|         ^^^^^^^^
 |------------------------------------|------------------------------------|
 |------------------------------------|------------------------------------|
 |--x-x-x-x-12----------x---x-12------|--14------ 12-----------------------|
 |------------------------x-----------|--------------14-13-12-10----12--10-|
 |------------------------------------|--------------------------12--------|
 |------------------------------------|------------------------------------|

 |-----------------------------------------|-----------------------------|
 |--------------12b 1/2--------------------|-----------------------------|
 |-----14-------------------------14/12----|-12---(12)b 1/4--14/12-------|
 |----------14--------------------------14-|-----------------------14-12-|
 |-----------------------------------------|-----------------------------|
 |-----------------------------------------|-----------------------------|

 -------------|------------------------|------------------------------|
 -------------|------------------------|--8-8-8-8-8-8-8-8-8b full/r---|
 -------------|-x-5---x-7---x-5---x-7--|------------------------------|
 -14--12--10--|-x-5---x-7---x-5---x-7--|------------------------------|
 -------------|------------------------|------------------------------|
 -------------|------------------------|------------------------------|

 -------------|---------------|
 -5-----------|---------------|
 ----8--7--5--|------x-x---5--|
 -------------|--7---x-x---5--|
 -------------|---------------|
 -------------|---------------|

 Chorus: x1

 coda.                     All notes here are played on the 6th string
G                Am*
 our dirty ittle secret.
              (E)|-3h5-5-5-5-5-3h5-5-5-5-5-3h5-5-5-| 6th string (top)
               our dirty little       secret,_______________________
 |-5h7--7-7-7-7-5h7-7-7-7-7-5h7-7-7-|-7h8-8-8-8-8-7h8-8-8-8-8-7h8-8-8|(E)
                                                     Am*
                      Our dirty little              secret,______________
(E)|--8H10-10-10-10-10-8H10-10-10-10-10-8h10 10-10-|
   G/B                        F/C
_______          dirty little secret,____________________________________

  G/D                            Asus2
____            our dirty little secret.

   Am*               G/B              F/C          G/D         Asus2

 e|-------        e|-------         e|------     e|------    e|-------|
 B|---5---        B|---8---         B|--10--     B|--12--    B|-------|
 G|---5---        G|---7---         G|--10--     G|--12--    G|---2---|
 D|---7---        D|---9---         D|--10--     D|--12--    D|---2---|
 A|-------        A|-------         A|------     A|------    A|---0---|
 E|-------        E|-------         E|------     E|------    E|-------|
Tap to rate this tab
# A B C D E F G H I J K L M N O P Q R S T U V W X Y Z