Song name
# A B C D E F G H I J K L M N O P Q R S T U V W X Y Z

Bon Jovi - Complicated tab

Tabbed by Jim
Standard tuning.
Contrary to the tune, it's not so complicated at all, just chords.
Fun to play mind you. Use talkbox if you want that added effect.



Riff 1: 

e|-------------------|---------------------------| 
B|-------------------|--10-10-10-10-10-10-10-10--| 
G|-------------------|--9--9--9--9--9--9--9--9---| 
D|--7-7-7-7-7-7-7-7--|--7--7--7--7--7--7--7--7---| 
A|--7-7-7-7-7-7-7-7--|---------------------------| 
E|-------------------|---------------------------| 

Riff 2: 

e|-------|--------------| 
B|-------|-----5--6--5--| 
G|--2-2--|--5-----------| 
D|--2-2--|--5-----------| 
A|--0-0--|--3-----------| 
E|-------|--------------| 

Riff 3: 

e|-----|-----|-----|-----|-----|-----|--------------| 
B|-----|-----|-----|-----|-----|-----|--------------| 
G|--2--|-----|--5--|-----|--2--|-----|--7--7--7--7--| 
D|--2--|--3--|--5--|--5--|--2--|--3--|--7--7--7--7--| 
A|--0--|--3--|--3--|--5--|--0--|--3--|--5--5--5--5--| 
E|-----|--1--|-----|--3--|-----|--1--|--------------| 

Riff 4: 

e|-----|-----|-----|-----| 
B|-----|-----|-----|-----| 
G|--2--|-----|--5--|-----| 
D|--2--|--3--|--5--|--5--| 
A|--0--|--3--|--3--|--5--| 
E|-----|--1--|-----|--3--| 

Riff 5: 

e|-------------|-------|-----|-----|-----|-----|-----|-------| 
B|-------------|-------|-----|-----|-----|-----|-----|-------| 
G|--2-2-x-x-x--|-------|--5--|-----|--7--|--7--|-----|-------| 
D|--2-2-x-x-x--|--3-3--|--5--|--5--|--7--|--7--|--3--|--3-3--| 
A|--0-0-x-x-x--|--3-3--|--3--|--5--|--5--|--5--|--3--|--3-3--| 
E|-------------|--1-1--|-----|--3--|-----|-----|--1--|--1-1--| 

Solo: 

e|----------------|----------------|----------------------|-----------------------| 
B|--------10--10--|--------10--10--|--10-8-8--------------|-----------------------| 
G|----------------|----------------|---------10-10-9-9-7--|--7--------------------| 
D|--7--7----------|--7--7----------|----------------------|----10-10-9-10-10-9-7--| 
A|----------------|----------------|----------------------|-----------------------| 
E|----------------|----------------|----------------------|-----------------------| 

e|----------------|----------------|-----7-7-8-8-10-10-12--|--12-10-10-8-8-7-7-------| 
B|--------10--10--|--------10--10--|--10-------------------|-------------------8-10--| 
G|----------------|----------------|-----------------------|-------------------------| 
D|--7--7----------|--7--7----------|-----------------------|-------------------------| 
A|----------------|----------------|-----------------------|-------------------------| 
E|----------------|----------------|-----------------------|-------------------------| 

Riff 6 (with clean or accoustic guitar): 

  Am                  F                   C                   G                    
e|----------0--------|----------1--------|----------0--------|----------3--------| 
B|--------1---1---1--|--------1---1---1--|--------1---1---1--|--------3---3---3--| 
G|------2-------2----|------2-------2----|------0-------0----|------0-------0----| 
D|----2--------------|----3--------------|----2--------------|----0--------------| 
A|--0----------------|-------------------|--3----------------|-------------------| 
E|-------------------|--1----------------|-------------------|--3----------------| 
  Am                  F                   Dm (with overdrive guitar) 
e|----------0--------|----------1--------|-------------------| 
B|--------1---1---1--|--------1---1---1--|-------------------| 
G|------2-------2----|------2-------2----|--7-7-7-7-7-7-7-7--| 
D|----2--------------|----3--------------|--7-7-7-7-7-7-7-7--| 
A|--0----------------|-------------------|--5-5-5-5-5-5-5-5--| 
E|-------------------|--1----------------|-------------------| 

Riff 7: 

e|-------|-----|-----|-----| 
B|-------|-----|-----|-----| 
G|--2-2--|-----|--5--|-----| 
D|--2-2--|--3--|--5--|--5--| 
A|--0-0--|--3--|--3--|--5--| 
E|-------|--1--|-----|--3--| 

Riff 8: 

e|------|-----|-----|-------| 
B|------|-----|-----|-------| 
G|--2---|-----|--5--|-------| 
D|--2---|--3--|--5--|--3-3--| 
A|--0---|--3--|--3--|--3-3--| 
E|------|--1--|-----|--1-1--| 
Tap to rate this tab
# A B C D E F G H I J K L M N O P Q R S T U V W X Y Z