Song name
# A B C D E F G H I J K L M N O P Q R S T U V W X Y Z

Bon Jovi - Unbreakable tab

---------------------------------------------------------------------------
 Unbrekable (Bon Jovi)
 Have a Nice Day - Bonus tracks

*Esta es la version completa.

(intro)
 ---------------------------------------------------------------------------|
 ---------------------------------------------------------------------------|
 ---------------------------------------------------------------------------|
 -245--246--245--4-5-7-9----------------------------------------------------|
 -245--246--245--4-5-7-9----------------------------------------------------|
 -023--024--023--2-3-5-7----------------------------------------------------|

 (verse) X2
 ---------------------------------------------------------------------------|
 ---------------------------------------------------------------------------|
 ---------------------------------------------------------------------------|
 -245--246--245--4-5-7-9----------------------------------------------------|
 -245--246--245--4-5-7-9----------------------------------------------------|
 -023--024--023--2-3-5-7----------------------------------------------------|

You said you made me and you break me 
You said it ain't hard to shake me 
Uh huh, uh huh 
You threw me ever since you've taken me down 

You came like a rainy grey monday 
I prayed like it was a sunday 
You say, you say 
But I won't run away. I'll be standing my ground 

 (pre-coro)
 ---------------------------------------------------------------------------|
 ---------------------------------------------------------------------------|
 ---------------------------------------------------------------------------|
 -4------5-----7-------9999-------------------------------------------------|
 -4------5-----7-------9999-------------------------------------------------|
 -2------3-----5-------7777-------------------------------------------------|

Seen all the screaming and fighting 
Lived through the screaming and lying 
I'm fine, you cant' deny 

(coro) X2
 ---------------------------------------------------------------------------|
 ---------------------------------------------------------------------------|
 --------5-------------7-----------------------------------------------------
 -2------5-----5-------7------ 9---------------------------------------------
 -2------3-----5-------5-------9--------------------------------------------|
 -0------------3---------------7--------------------------------------------|

I'm unbreakable 
Unstoppable 
I'm invincible 
You're gonna bring it to me 
Cuz I'm always gonna be 
Unbreakable 
Reliable 
Undenyable 
Come on give it to me 
Cuz I'm always gonna be Unbreakable 

(verse) X2
 ---------------------------------------------------------------------------|
 ---------------------------------------------------------------------------|
 ---------------------------------------------------------------------------|
 -245--246--245--4-5-7-9----------------------------------------------------|
 -245--246--245--4-5-7-9----------------------------------------------------|
 -023--024--023--2-3-5-7----------------------------------------------------|

Don't need the diamond cards or cold cash 
Don't need to sell my soul so don't ask 
Uh huh, uh huh 
Took a pass on the pass I'd be leaving right now 

Newsflash, I'm causing a commotion 
Jump back, I'm poetry in motion, 
Think fast, talk trash 
Well I ain't talking back but I'm calling you out 

(pre-coro)
 ---------------------------------------------------------------------------|
 ---------------------------------------------------------------------------|
 ---------------------------------------------------------------------------|
 -4------5-----7-------9999-------------------------------------------------|
 -4------5-----7-------9999-------------------------------------------------|
 -2------3-----5-------7777-------------------------------------------------|

No time for fussing and fighting 
Lived through the screaming and the lying 
I'm fine, you cant' deny

(coro) X2
 ---------------------------------------------------------------------------|
 ---------------------------------------------------------------------------|
 --------5-------------7-----------------------------------------------------
 -2------5-----5-------7------ 9---------------------------------------------
 -2------3-----5-------5-------9--------------------------------------------|
 -0------------3---------------7--------------------------------------------|

I'm unbreakable 
Unstoppable 
I'm invincible 
You're gonna bring it to me 
Cuz I'm always gonna be 
Unbreakable 
Reliable 
Undenyable 
Come on give it to me 
Cuz I'm always gonna be Unbreakable 

(solo)

           .........I will be Unbreakable 
 ---------------------------------------------------------------------------|
 ---------------------------------------------------------------------------|
 ---------------------------------------------------------------------------|
 -245---------------4-5-7-9-------------------------------------------------|
 -245---------------4-5-7-9-------------------------------------------------|
 -023---------------2-3-5-7-------------------------------------------------|


 ---------------------------------------------------------------------------|
 ---------------------------------------------------------------------------|
 ---------------------------------------------------------------------------|
 -245------245-------245-----4-5-7-9----------------------------------------|
 -245------246-------245-----4-5-7-9----------------------------------------|
 -023------024-------023-----2-3-5-7----------------------------------------|


(pre-coro)
 ---------------------------------------------------------------------------|
 ---------------------------------------------------------------------------|
 ---------------------------------------------------------------------------|
 -4------5-----7-------9999-------------------------------------------------|
 -4------5-----7-------9999-------------------------------------------------|
 -2------3-----5-------7777-------------------------------------------------|
Newsflash, I'm causing a commotion 
Jump back, I'm poetry in motion, 
I'm fine, you can't deny 


(coro) X4
 ---------------------------------------------------------------------------|
 ---------------------------------------------------------------------------|
 --------5-------------7-----------------------------------------------------
 -2------5-----5-------7------ 9---------------------------------------------
 -2------3-----5-------5-------9--------------------------------------------|
 -0------------3---------------7--------------------------------------------|


I'm unbreakable 
Unstoppable 
I'm invincible 
Come on bring it to me 
Cuz I'm always gonna be 
Unbreakable 
Reliable 
Undenyable 
Come on give it to me 
Cuz I'm always gonna be Unbreakable 

Unstoppable 
I'm invincible 
You're gonna bring it to me 
Cuz I'm always gonna be 
Unbreakable 
Reliable 
Undenyable 
Come on give it to me 
Cuz I'm always gonna be Unbreakable 
I will be Unbreakable 

(outro)
........I will be Unbreakable .....I will be Unbreakable 
 ---------------------------------------------------------------------------|
 ---------------------------------------------------------------------------|
 ---------------------------------------------------------------------------|
 -245--246--245--4-5-7-9----------------------------------------------------|
 -245--246--245--4-5-7-9----------------------------------------------------|
 -023--024--023--2-3-5-7----------------------------------------------------|


---------------------------------------------------------------------------|
 ---------------------------------------------------------------------------|
 ---------------------------------------------------------------------------|
 -245--246--245--4-5-7------------------------------------------------------|
 -245--246--245--4-5-7------------------------------------------------------|
 -023--024--023--2-3-5------------------------------------------------------|


-----------------------------------------------------------------------------

*Cualquier cosa: bounce_times_square@hotmail.com
Tap to rate this tab
 
# A B C D E F G H I J K L M N O P Q R S T U V W X Y Z