Guitaretab - guitar tabs
Song name
# A B C D E F G H I J K L M N O P Q R S T U V W X Y Z

Bon Jovi - Breakout tab

Song: Breakout 
Album: Bon Jovi (1984)
Artist: Bon Jovi
Tuning: Eb
Tabber: Jeppe

b^^ Bend Full Tone
~ Vibrato


Synth intro

Guitar Intro
eb|------------------------------------------------------------------------|
Bb|---------5-----------7---------5--------7-------------------------------|
Gb|---------5-----------7---------5--------7---------------------x4--------|
Db|---------5-----------7---------5--------7-------------------------------|
Ab|-0-0-0-----0-0-0-0-0---0-0-0-0---0-0-0-0--------------------------------|
Eb|------------------------------------------3-3-5-7-----------------------|

Verse (Same as the intro)
Chours
eb|------------------------------------------------------------------------|
Bb|------------------------------------------------------------------------|
Gb|------------------------------------------------------------------------|
Db|------------------------------------------------------------------------|
Ab|-0-0-0-0-0-0-0-----------------5----------------------3-3-------------|
Eb|---------------0-1-3-3-3-3-3-3-3-3-3-3-3-3-3-3-3-1-1-1-1-1-1-1-1-1-1-1-1|

eb|------------------------------------------------------------------------|
Bb|------------------------------------------------------------------------|
Gb|------------------------------------------------------------------------|
Db|------------------------------------------------------------------------|
Ab|-3-4-5-5-5-5-5-5-5-5----------------------------------------------------|
Eb|----------------------3-3-3-3-3-3-3-3-----------------------------------|
[ Tab from: http://www.guitaretab.com/b/bon-jovi/170660.html ]
Verse
Chours x 2
Bridge (Just play A)
Guitar Solo
eb|------------------------------------------------------------------------|
Bb|----------------------------------------------------7---5~--------------|
Gb|--7b^^-7-7--7b^^-7-5--------5-------------------5-7---7-----------------|
Db|----------------------7-5-7-----5-----------5-7-------------------------|
Ab|----------------------------------7-5-3-5-7----------------17-19--------|
Eb|------------------------------------------------------------------------|

eb|----------------------------------------------17-19-20b^^---------------|
Bb|----------------------------17-19-20-17-19-20---------------------------|
Gb|----------16-17-19-16-17-19---------------------------------------------|
Db|-16-17-19---------------------------------------------------------------|
Ab|------------------------------------------------------------------------|
Eb|------------------------------------------------------------------------|

eb|-----------------12(15)---17---19---20-20b^^ 20-------------------------|
Bb|--5(7)------------------------------------------------------------------|
Gb|--------19-19-7---------------------------------------------------------|
Db|------------------------------------------------------------------------|
Ab|------------------------------------------------------------------------|
Eb|------------------------------------------------------------------------|

Chours x 2
Verse/w Solo (I did not have time for the solo,sry)

This tab is100 % correct ! Any questions email me on jeppe_killen@hotmail.com


Related for Breakout tab
Advertisement will be closed in 10 seconds