Song name
# A B C D E F G H I J K L M N O P Q R S T U V W X Y Z

Bon Jovi - Everyday tab

----------------------------------------------------------------------------
			     Everyday - by Bon Jovi
----------------------------------------------------------------------------
Tabbed by: JimBonJovi
Email: blackburn_rover_jim@hotmail.co.uk

Thanks to sambo for having started the tab. I just corrected it.

Tuning: Standard

Guitar 1:
Intro/Verse Riff/and in Chorus background
e|-----------------------------|
B|-----------------------------|
G|-----------------------------|
D|-----------------------------|
A|----------8-------------8----|
E|--5-5-5-5---5--5--5--5-----5-| figure out strumming pattern

Guitar 2: (0:23-0:30)
e|-----------5----------|-----------3----------|
B|--------5-------------|--------3-------------|
G|-----5----------------|-----4----------------|
D|--7-------------------|--5-------------------|
A|----------------------|----------------------|
E|----------------------|----------------------|

e|-----------5----------|
B|--------5-------------|
G|-----5----------------|
D|--7-------------------|
A|----------------------|
E|----------------------|


Pre-Chorus: Both guitars (0:32-0:41)
e|---------------|-------------------------|
B|---------------|-------------------------|
G|---------------|-------------------------|
D|-------3~------|------5-----3-------2----|
A|-------3~------|------5-----3-------2----|
E|-------1~------|------3-----1-------0----| Play once


Chorus: Guitar 1 play verse riff, Guitar 2 play this(0:42-0:50)
e|------------|------------|-------------------|
B|--0---------|------------|-------------------|
G|--2---------|--5---------|-------------------|
D|--2---------|--5---------|--5----------------|
A|--0---------|--3---------|--5----------------|
E|------------|--3---------|--3----------------|

e|----------|----------|
B|----------|--0-------|
G|----------|--2-------|
D|--3-------|--2-------|
A|--3-------|--0-------|
E|--1-------|----------|

Chorus: 2nd time around (0:51-0:58)
e|------------|------------|--------|
B|--0---------|------------|--------|
G|--2---------|--5---------|--------|
D|--2---------|--5---------|--5-----|
A|--0---------|--3---------|--5-----|
E|------------|--3---------|--3-----|

e|----------|---------|
B|----------|---------|
G|----------|---------|
D|--3-------|----5----|
A|--3-------|----5----|
E|--1-------|----3----|

Chorus End:(0:59-1:03)
e|---------|------------|
B|--0------|------------|
G|--2------|------------|
D|--2------|------------|
A|--0------|--3-3-3-3---|
E|---------|--1-1-1-1---|

Repeat verse with both guitar parts x1 (1:12-1:21)
Repeat pre-chorus x1 (1:22-1:30)
Repeat Chorus (1:31-1:48)

Bridge: (1:49-1:56)
e|-----2-------|------3------|---------------|
B|-----3-------|------3------|---------------|
G|-----2-------|------2------|---------------|
D|-----0-------|------2------|---------------|
A|-----0-------|-------------|---3-3---3-3---|
E|-------------|-------------|---1-1---1-1---| Pause

 Hit the gas...There ain't not....my way....Everyday


Solo: (1:58-2:20)
e|--5------------5----|--7-------------7-----|
B|--8b-----------8b---|--10b-----------10b---|
G|--------------------|----------------------|
D|--------------------|----------------------|
A|--------------------|----------------------|
E|--------------------|----------------------|

e|---------------------|---------------------|
B|---------------------|---------------------|
G|--4b-----------4b-2--|--4b-----------4b-2--|
D|---------------------|---------------------|
A|---------------------|---------------------|
E|---------------------|---------------------|

e|--------------------------------------------------|
B|-----10-10----10-10----10-10----10-10----10-10-10-|
G|--12b------12b------12-------12-------12----------|
D|--------------------------------------------------|
A|--------------------------------------------------|
E|--------------------------------------------------|

e|--------------------|
B|--12~---------------|
G|--14b---------------|
D|--------------------|
A|--------------------|
E|--------------------|

e|--------------------|----------------------|
B|--13~---------------|--15~-------17~-------|
G|--15b---------------|--17b-------19b-------|
D|--------------------|----------------------|
A|--------------------|----------------------|
E|--------------------|----------------------|

e|--17~---------------|
B|--20b---------------|
G|--------------------|
D|--------------------|
A|--------------------|
E|--------------------|

Repeat chorus and end on chorus x4
---------------------------------------------------------------
Any questions or comments? Feel free to contact me.
Thanks and Keep The Faith!
Tap to rate this tab
# A B C D E F G H I J K L M N O P Q R S T U V W X Y Z