Guitaretab - guitar tabs
Song name
# A B C D E F G H I J K L M N O P Q R S T U V W X Y Z

Bon Jovi - Have A Nice Day tab

Bon Jovi  Have a Nice Day

intro:
e|-------------------|
B|-------------------|
G|-------------------|
D|-6-----2-----4-4---|
A|-4--2--0--2--2-2---|
E|----0-----0--------|X2

verse1:
e|-----------------------------------------------------------------------|
B|-----------------------------------------------------------------------|
G|-----------------------------------------------------------------------|
D|-x-x-x-x-x-x-x-x-x-x-x-x-x-x-x-x-x-x---6--6--6-----------2--2-----4--4-|
A|-x-x-x-x-x-x-x-x-x-x-x-x-x-x-x-x-x-x---4--4--4--2--2--2--0--0--2--2--2-|
E|-x-x-x-x-x-x-x-x-x-x-x-x-x-x-x-x-x-x------------0--0--0--------0-------|

  -----------------------------------------------------------------------|
  -----------------------------------------------------------------------|
  -----------------------------------------------------------------------|
  -x-x-x-x-x-x-x-x-x-x-x-x-x-x-x-x-x-x---6--6--6-----------2--2-----4--4-|
  -x-x-x-x-x-x-x-x-x-x-x-x-x-x-x-x-x-x---4--4--4--2--2--2--0--0--2--2--2-|
  -x-x-x-x-x-x-x-x-x-x-x-x-x-x-x-x-x-x------------0--0--0--------0-------|

Pre-chorus:
e|-------------------------------------------------------------|
B|-------------------------------------------------------------|
G|-------------------------------------------------------------|
D|-6-6-6-6-6-6-6-6-6-6-6-6-6-6-6-------------------------------|
A|-4-4-4-4-4-4-4-4-4-4-4-4-4-4-4-2-2-2-2-2-2-2-2-2-2-2-2-2-2-2-|
E|-------------------------------0-0-0-0-0-0-0-0-0-0-0-0-0-0-0-|

  -------------------------------------------------------------|
  -------------------------------------------------------------|
  -------------------------------------------------------------|
  -2-2-2-2-2-2-2-2-2-2-2-2-2-2-2-------------------------------|
  -0-0-0-0-0-0-0-0-0-0-0-0-0-0-0-4-4-4-4-4-4-4-4-4-4-4-4-4-4-4-|
  -------------------------------2-2-2-2-2-2-2-2-2-2-2-2-2-2-2-|

chorus:
e|---------------------------------|
B|---------------------------------|
G|---------------------------------|
D|---------2-2-2-2---------4-4-4-4-|
A|-6-6-6-6-0-0-0-0-2-2-2-2-2-2-2-2-|
E|-4-4-4-4---------0-0-0-0---------|X3

THEN......
e|-------------------------|
B|-------------------------|
G|-------------------------|
D|-------------------------|
A|-4-4-4-4-4-4-4-4-4-4-7-7-|
E|-2-2-2-2-2-2-2-2-2-2-5-5-|

THEN......
e|-------------------|
B|-------------------|
G|-------------------|
D|-6-----2-----4-4---|
A|-4--2--0--2--2-2---|
E|----0-----0--------|X2

verse2:
e|-----------------------------------------------------------------------|
B|-----------------------------------------------------------------------|
G|-----------------------------------------------------------------------|
D|-x-x-x-x-x-x-x-x-x-x-x-x-x-x-x-x-x-x---6--6--6-----------2--2-----4--4-|
A|-x-x-x-x-x-x-x-x-x-x-x-x-x-x-x-x-x-x---4--4--4--2--2--2--0--0--2--2--2-|
E|-x-x-x-x-x-x-x-x-x-x-x-x-x-x-x-x-x-x------------0--0--0--------0-------|
[ Tab from: http://www.guitaretab.com/b/bon-jovi/188823.html ]
  -----------------------------------------------------------------------|
  -----------------------------------------------------------------------|
  -----------------------------------------------------------------------|
  -x-x-x-x-x-x-x-x-x-x-x-x-x-x-x-x-x-x---6--6--6-----------2--2-----4--4-|
  -x-x-x-x-x-x-x-x-x-x-x-x-x-x-x-x-x-x---4--4--4--2--2--2--0--0--2--2--2-|
  -x-x-x-x-x-x-x-x-x-x-x-x-x-x-x-x-x-x------------0--0--0--------0-------|

Pre-chorus:
e|-------------------------------------------------------------|
B|-------------------------------------------------------------|
G|-------------------------------------------------------------|
D|-6-6-6-6-6-6-6-6-6-6-6-6-6-6-6-------------------------------|
A|-4-4-4-4-4-4-4-4-4-4-4-4-4-4-4-2-2-2-2-2-2-2-2-2-2-2-2-2-2-2-|
E|-------------------------------0-0-0-0-0-0-0-0-0-0-0-0-0-0-0-|

  -------------------------------------------------------------|
  -------------------------------------------------------------|
  -------------------------------------------------------------|
  -2-2-2-2-2-2-2-2-2-2-2-2-2-2-2-------------------------------|
  -0-0-0-0-0-0-0-0-0-0-0-0-0-0-0-4-4-4-4-4-4-4-4-4-4-4-4-4-4-4-|
  -------------------------------2-2-2-2-2-2-2-2-2-2-2-2-2-2-2-|

chorus:
e|---------------------------------|
B|---------------------------------|
G|---------------------------------|
D|---------2-2-2-2---------4-4-4-4-|
A|-6-6-6-6-0-0-0-0-2-2-2-2-2-2-2-2-|
E|-4-4-4-4---------0-0-0-0---------|X3

THEN......
e|-------------------------|
B|-------------------------|
G|-------------------------|
D|-------------------------|
A|-4-4-4-4-4-4-4-4-4-4-7-7-|
E|-2-2-2-2-2-2-2-2-2-2-5-5-|

THEN......
e|-------------------|
B|-------------------|
G|-------------------|
D|-6-----2-----4--4--|
A|-4--2--0--2--2--2--|
E|----0-----0--------|x2

Solo:

e]-------------------------------------9----------------------------------|
B]-12bu-12bu-9-12bu~-12p9----------------------------------14----------14-|
G]------------------------11--9h11-11bu~11~11bd--9h11-11h13--9h11-11h13---|
D]--------------------------11--------------------------------------------|
A]------------------------------------------------------------------------|
E]------------------------------------------------------------------------|

  --------------------------12bu~12-12-11-11-------------------------------------|
  -----------14----------14------------------12-12-------------------------------|
  -9h11-11h13--9h11-11h13--------------------------11v~~-14-13-------------------|
  -------------------------------------------------------------14----------------|
  ----------------------------------------------------------------14-12-11-12-12-|
  -------------------------------------------------------------------------------|

THEN......
e|-------------------|
B|-------------------|
G|-------------------|
D|-6-----2-----4--4--|
A|-4--2--0--2--2--2--|
E|----0-----0--------|X2


chorus:
e|---------------------------------|
B|---------------------------------|
G|---------------------------------|
D|---------2-2-2-2---------4-4-4-4-|
A|-6-6-6-6-0-0-0-0-2-2-2-2-2-2-2-2-|
E|-4-4-4-4---------0-0-0-0---------|X3

THEN......
e|-------------------------|
B|-------------------------|
G|-------------------------|
D|-------------------------|
A|-4-4-4-4-4-4-4-4-4-4-7-7-|
E|-2-2-2-2-2-2-2-2-2-2-5-5-|

THEN......
e|-------------------|
B|-------------------|
G|-------------------|
D|-6-----2-----4--4--|
A|-4--2--0--2--2--2--|
E|----0-----0--------|X6

| bu bend up
| bd bend dpwn
| ~  let ring
| h  hammer-on
| p  pull-off
| v  vibrato
| x  Mute note


thats it please rate
Related for Have A Nice Day tab