Song name
# A B C D E F G H I J K L M N O P Q R S T U V W X Y Z

Bon Jovi - Ill Be There For You tab

----------------------------------------------------------------------------
		     I'll Be There For You - Bon Jovi
----------------------------------------------------------------------------
Tabbed by:Jamone96
Email:EXPLOSIVESUCKA@comcast.net

Tuning:Standard

Intro

e|--------------------------------------------------------------------------|
B|-----1\3------3\5------5\8------8/7---------------------------------------|
G|--------------------------------------------------------------------------|
D|-0--------0--------0---------0--------------------------------------------|
A|--------------------------------------------------------------------------|
E|--------------------------------------------------------------------------|

e|--------------------------------------------------------------------------|
B|-----1\3------3\5------5\8------8---8/7-----------------------------------|
G|--------------------------------------------------------------------------|
D|-0--------0--------0---------0--------------------------------------------|
A|--------------------------------------------------------------------------|
E|--------------------------------------------------------------------------|


Verse

/ D / E- / G / D /

The Last Line of the Verses Play These Chords

/ D / E- / G / A /


Chorus

/ D / B- / G / A C G / D / x2
             [ 1 3 4]

[ 1 3 4 ] - The Beat For That Measure

Play The Last Line Of The Intro After The Choruses


Bridge

/ A / B- / A / D / B- / E- / G / A /

Now I Know It doesnt sound Like The Actual Song But That's Because, Its A Beginner 
One More Thing Play The Chorus Over The Solo.
Tap to rate this tab
# A B C D E F G H I J K L M N O P Q R S T U V W X Y Z