Song name
# A B C D E F G H I J K L M N O P Q R S T U V W X Y Z

Bon Jovi - Ill Be There For You tab

#------------------------------PLEASE NOTE------------------------------------#
 This file is the author's own work and represents their interpretation of the
 Song. You may only use this file for private study, scholarship, or research.
#-----------------------------------------------------------------------------#

Tab Author: Carlouie Giray
Date: July 20, 2009
author comment: this is the correct solo tab of this song, the others are bullshit

              		   I'll BE THERE FOR YOU
                               by BON JOVI


     D                     Bm                             G
e|--------------------------------------------------------------------------------|
b|--10~~~10-----------xx---10~~~10------------------------------------------------|
g|--9b10~r9p7---7-9p7-xx---9b10~r9p7---7-9p7-------7-7--.7-----7-7-.7-----7-7-----|
D|------------9----------------------9-------------7-7---------7-7--------7-7-----|
A|---------------------------------------------7h9---------7h9--------7h9---------|
E|--------------------------------------------------------------------------------|


                 A
e|-----------7-7-------------------------------|
b|-----------7---10b12~-10b12r10-7-------------|
g|-7-9-7-9b11----------------------9b11-7------|
D|----------------------------------------9-7--|
A|---------------------------------------------|
E|---------------------------------------------|


      D                              Bm                               G
e|--------------------------------------------------------------------2-|
b|--------------------------------------------------------------------2-|
g|--9/11\9\7--9/11\9/12-12\11-11\9---9/11\9\7--9/11\9/12-12\11-11\9---0-|
D|--------------------------------------------------------------------0-|
A|--7/9 \7\5--7/9 \7/10-10\9--9 \7---7/9 \7\5--7/9 \7/10-10\9--9 \7---2-|
E|--------------------------------------------------------------------3-|


                                         A
e|-------------------------------------------------------------------|
b|---0-10b12-10b12r10p7----------------------------------------------|
g|----------------------9b11r9p7---9---7---10p9p7------10p9p7--------|
D|-------------------------------9---9------------9p7---------9p7----|
A|-/-----------------------------------------------------------------|
E|-------------------------------------------------------------------|

e|----------------------------------------|
b|-------7-10b12x-------------------------|
g|--9b11-----------9b11r9p7---7h9~~~------|
D|--------------------------9-------------|
A|----------------------------------------|
E|----------------------------------------|

  b - Bend
  r - release
  x - dead note
  p - releasepick
  ~ - vibrato
  / - slide ascend
  \ - slide descend
  . - single fast note


END

ENJOY!!!
Tap to rate this tab
 
# A B C D E F G H I J K L M N O P Q R S T U V W X Y Z