Song name
# A B C D E F G H I J K L M N O P Q R S T U V W X Y Z

Bon Jovi - Everyday tab

EVERYDAY By: BON JOVI
This is my first tab...hope you like it!!! This is as close as i could get, Enjoy!!! I 
COPY this from the other one...i forgot to log in before i submitted the other tab

|-----------------------------------------------------------------------------|
|--10---------10--------------------------------------------------------------|
|--12b14~-14--14b16~--16\\-------------------------4b5-4b5-4b5--5p4-2~--------|
|-----------------------------------------------------------------------------|
|---------------------------2b3-2b3-2b3-2b3--3p2-0----------------------------|
|-----------------------------------------------------------------------------|

|-----------------------------------------------------------------------------|
|-10---10-10-------10-10--------10-10-------10-10----10-----------12-12-------|
|-12b14-------12b14-------12b14-------12b14--------12---12--14b16-------------|
|-----------------------------------------------------------------------------|
|-----------------------------------------------------------------------------|
|-----------------------------------------------------------------------------|

|-----------------------------------------------------------------------------|
|------12-12------12-12------12-12---12----------13-13-------13-13------------|
|-14b16------14b16------14b16------14---14--16b17------16b17------------------|
|-----------------------------------------------------------------------------|
|--------------------------------------------------------------continued>>>---|
|-----------------------------------------------------------------------------|

|-----------------------------------------------------------------------------|
|-------13-13-------13-13---13----------15-15------15-15----------17-17-------|
|-16b17-------16b17-------16---13~--17b19------17b19------17--19b21-----------|
|-----------------------------------------------------------------------------|
|-----------------------------------------------------------------------------|
|-----------------------------------------------------------------------------|

|-----------------------------------------------------------------------------|
|-------17-17---17-19b21~-----------------------------------------------------|
|-19b21-----------------------------------------------------------------------|
|-----------------------------------------------------------------------------|
|-----------------------------------------------------------------------------|
|-----------------------------------------------------------------------------|
Tap to rate this tab
 
# A B C D E F G H I J K L M N O P Q R S T U V W X Y Z