Song name
# A B C D E F G H I J K L M N O P Q R S T U V W X Y Z

Bon Jovi - Lost Highway tab

Lost Highway-solo (from recording studio)
                                                                                 Optional P.H.
                                                                                /
E)-------------------|------------------------------------|--------------------18---------------|
B)-(Pick Slide Down)-|-1/3~-3/5~-5/8~-8/11~-11/14~-14/18~-|-17b--18-15b--17-15----15------------|
G)-------------------|------------------------------------|--------------------------17-15-17~~-|
D)-------------------|------------------------------------|-------------------------------------|
A)-------------------|------------------------------------|-------------------------------------|
E)-------------------|------------------------------------|-------------------------------------|

E)||------------------||-----------------|
B)||.------------15--.||-15b-------------|
G)||----17-15-17------||-----17\---------|
D)||.----------------.||-----------------|
A)||------------------||-----------------|
E)||------------------||-----------------|

E)----------------------------------------------10----10-12-10-12-14-12-14-|
B)----------------------------10----10-12-10-12----12----------------------|
G)----------10----10-12-10-12----12----------------------------------------|
D)-12-10-12----12----------------------------------------------------------|
A)-------------------------------------------------------------------------|
E)-------------------------------------------------------------------------| 
   This part starts fast then slows down at this point/|\
                                                       |

E)-18b~~~~16-14~~~~~~~---|
B)-----------------------|
G)-----------------------|
D)-----------------------|
A------------------------|
E)-----------------------|

This is the closest that I have. Try it.
Tap to rate this tab
# A B C D E F G H I J K L M N O P Q R S T U V W X Y Z