Song name
# A B C D E F G H I J K L M N O P Q R S T U V W X Y Z

Bon Jovi - Til We Aint Strangers Anymore tab

til we aint strangers anymore
intro

i wanted to learn this song just for the intro but couldnt find a tab so i did it myself

capo 4th

|--2h3-3s5-5-5-5s3-3-2-2--0h2p2---2---------------------|
|--3---3---3-3-3---3-3-3--3-----3---3h5-5-5p3-3h5-------|
|--2---2---2-2-2---2-2-2--2---------2---2-2---2---------|
|--0*---------------------------------------------------|
|-----------------------------------0*------------------|
|-------------------------------------------------------|

|--2h3-3s5-5-5-5s3-3-2-2--0h2p2---2-0-0h2---------------|
|--3---3---3-3-3---3-3-3--3-----3---3-3----3------------|
|--2---2---2-2-2---2-2-2--2---------2-2----2------------|
|------------------------------------------0------------|
|--2*---------------------------------------------------|
|-----------------------------------3*------------------|


loosen up ur fingers a bit first cuz its alota stretching lol

addin a bass guitar to fill in place of the violen myt make it sound alot lyk the real 
bt thats jus to gv it a lil backing

*these can be your bass notes or you can play them as chords on a second guitar like  D,A,Bm,G
Tap to rate this tab
 
# A B C D E F G H I J K L M N O P Q R S T U V W X Y Z