Song name
# A B C D E F G H I J K L M N O P Q R S T U V W X Y Z

Bon Jovi - Work For The Working Man tab

Bon Jovi: The Circle Work For the Working Man
  

Intro: 
                                               22x I think
e |-------------------------------------------|
B |-------------------------------------------|
G |-------------------------------------------|
D |-------------------------------------------|
A |-----7-7-5-7-------5-----------------------|
E |--0----------5-7---------------------------|


After 22x do this:

    C                     A
e-----------         ------------
B-----------         ------------
G---5-------         ------------   STOP
D---5-------         -----7------
A---3-------         -----7------
E-----------         -----5------


Chorus:

 Em     C     G     D    3x



Intro:
                                        
e |-------------------------------------------|
B |-------------------------------------------|
G |-------------------------------------------|
D |-------------------------------------------|
A |-----7-7-5-7-------5-----------------------|
E |--0----------5-7---------------------------|

    C                     A
e-----------         ------------
B-----------         ------------
G---5-------         ------------   STOP
D---5-------         -----7------
A---3-------         -----7------
E-----------         -----5------

Chorus:


Em     C     G     D    3x


Bridge: 

 D    Am7    D    Am7   Em   C    Am     D (hold D)



Chorus:

Em (strum once)  C (strum once)  G    D

Em    C    G    D
Em    C    G    D
Em    C    G    D
Em    C    G    D



   My First Tab 
   Thank You
Tap to rate this tab
 
# A B C D E F G H I J K L M N O P Q R S T U V W X Y Z