Guitaretab - guitar tabs
Song name
# A B C D E F G H I J K L M N O P Q R S T U V W X Y Z

Bon Jovi - Keep The Faith tab

Keep the faith
Intro G | F | G | G | Bb | C | G
|------|
|-8-6-|
|-7-5-|
|-5-3-|
|-5-3-|
|------|
Verse 1
G                              	    Bb                           C   	      Bb G
Mother mother tell your children that their time has just be-gun
G                              Bb  		  C         	       Eb  F  G
I have suffered for my anger, there are wars that can't be won

Verse 2
Father father please believe me I am laying down my guns
I am broken like an arrow forgive me forgive your wayward son

Pre-Chorus (same as verse)
(Everybody needs somebody to love) mother mother
(Everybody needs somebody to hate) please believe me
Everybody's bitching 'cause they can't get enough and it's hard to hold on when there's
one to lean on

Chorus
G             Bb                                         	          F            C       
     		  G
FAITH! You know you're gonna live through the rain LORD! you got to keep the faith
G             Bb                                         F       	C                     G
FAITH! Don't let your love turn to hate right now we got to keep the faith
G
Keep the faith, keep the faith Lord we got to keep the faith
G | Bb | C | G

Verse 4
Tell me baby when I hurt you do you keep it all inside
Do you tell me all's forgiven and just hide behind your pride

Pre-Chorus (same as verse)
(Everybody needs somebody to love) mother mother
(Everybody needs somebody to hate) please believe me
Everybody's bleeding 'cause the times are tough and it's hard to be strong when there's
one to dream on

Chorus

Solo G | Bb | C | G (3x), G | Bb | C | Eb - F | G

Verse 6
Walking in the footsteps of society's lies I don't like what I see no more, sometimes I
that I was blind
Sometimes I wait forever to stand out in the rain so no one sees me cryin' trying to 
away the pain

Verse 7
Mother father there's things I've done I can't erase every night we fall from grace
It's hard with the world in your face, trying to hold on, trying to hold on.

Chorus
FAITH! You know you're gonna live thru the rain Lord you got to keep the faith
FAITH! Don't let your love turn to hate right now we got to keep the faith
Keep the faith, Keep the faith try to hold on, trying to hold on
Faith! Keep the faith, Keep the faith try to hold on, trying to hold on
...

Keep The Faith Solo  Bon Jovi
[ Tab from: http://www.guitaretab.com/b/bon-jovi/2087.html ]
e|----------------|----------------|--------------------|---------------------|
b|-3-6-6-3-6-6----|-3-6-6-3-6-6----|-3-6-6-3-3-3--------|---------------------|
g|-3-3-3-3-3-3----|-3-3-3-3-3-3----|-3-3-3-3-3-3-5b6r5--|-3--3---5b6r5b6r5b6r5|
d|----------------|----------------|--------------------|---5--5--------------|
a|----------------|----------------|--------------------|---------------------|
e|----------------|----------------|--------------------|---------------------|


e|-----------------|-----------------|-------------------|------------------|
b|-----------------|-----------------|-------------------|------6-6-6-6h8-8-|
g|-3---------------|-----------------|-----3-5-3h5p3-3~--|-(5)s7-7-7-7------|
d|---5-3-3h5p3h5p3-|-----------------|-3-5---------------|------------------|
a|-----------------|-5-3---------3-5-|-------------------|------------------|
e|-----------------|-----6-3-3-6-----|-------------------|------------------|


e|-6-8-6-8br8br8b-56h8p6-6--|-----6-8b-8b-6-8-8b-6---|--------------------|
b|---------------------------8-|-6-8---------------------8-|-6h8r8b-8-6-8-6---|
g|-----------------------------|---------------------------|---------------7-5--|
d|-----------------------------|---------------------------|--------------------|
a|-----------------------------|---------------------------|--------------------|
e|-----------------------------|---------------------------|--------------------|

(tremolo picking)
e|-s15-15-15-15-13-15b-15-15-15-13-15b-15-15-15-13-15b-15-15-15-13-15b-15-----|
b|--------------------------------------------------------------------------------|
g|--------------------------------------------------------------------------------|
d|--------------------------------------------------------------------------------|
a|--------------------------------------------------------------------------------|
e|--------------------------------------------------------------------------------|

e|-15-15-13-15-15-13-15-|-18b20-15----------------------|----------------------|
b|-----------------------|----------18-15-15h18p15-------|----------------------|
g|-----------------------|-------------------------17-15-|-17b19-15-5h7-7br7-5-|
d|-----------------------|-------------------------------|---------------------7|
a|-----------------------|-------------------------------|----------------------|
e|-----------------------|-------------------------------|----------------------|

e|-------------------|---------------------------5h8-5s----|----------------|
b|-------------------|-----------------------5h8-----5s----|----------------|
g|-5-7-5-------------|-----------------5h7b---------------|----------------|
d|-------7-5---------|-----------5h7b---------------------|----------------|
a|-----------7-5-----|-----5-7-----------------------------|----------------|
e|---------------8-5-|-5-8---------------------------------|----------------|
Related for Keep The Faith tab