Song name
# A B C D E F G H I J K L M N O P Q R S T U V W X Y Z

Bon Jovi - Lost Highway tab

This is what it really is:

E)-----------------------------------------------------15___-|
B)------------------------------8___-------15___-15^17-------|
G)-------0_____-0_-----7___-7/9------14/16-------------------|
D)----------5__----7/9---------------------------------------|
A)-----------------------------------------------------------|
E)-17\13-----------------------------------------------------|

E)-----------15---------------18(P.H.)---------------------|
B)-15__b____----15p__r____-12----------12^15^12----12_____-|
G)----------------------------------------------14---------|
D)---------------------------------------------------------|
A)---------------------------------------------------------|
E)---------------------------------------------------------|

E)---------||---------------------------------------||----------|
B)-12------||.-14-------12-------16-------12-------.||-12^14^12-|
G)----12-12||-----12-12----12-12----12-12----12-12--||----------|
D)---------||---------------------------------------||----------|
A)---------||.-------------------------------------.||----------|
E)---------||---------------------------------------||----------|

                              Slow Down At This Point
E)----------------------------------------14-12-16b____-16-14______-||
B)----------------------------10----10b__---------------------------||
G)----------10----10-12-10-12----12---------------------------------||
D)-12-10-12----12---------------------------------------------------||
A)------------------------------------------------------------------||
E)------------------------------------------------------------------||
  Not Sure About This Part But Try It Anyways

_=Hold Fret
^=Hammer On/Pull Off
b=Bend
p=Pre-Bend
r=Release
Tap to rate this tab
 
# A B C D E F G H I J K L M N O P Q R S T U V W X Y Z