Song name
# A B C D E F G H I J K L M N O P Q R S T U V W X Y Z

Bon Jovi - We Werent Born To Follow tab

Bon Jovi
We Weren't Born to Follow
The Circle


Second guitar plays chords.


E                             B
-----------------------------|------------------------------|
-x--x--12--x-x-x--12--x-x----|-x--x--12--x-x-x--12--x-x-----|
-----------------------------|------------------------------|
--------------------------9--|--------------------------11--|
-----------------------------|------------------------------|
-----------------------------|------------------------------|

F#                                                                          
------------------------------|---------------------------|
-x--x--11--x-x-x--11--x-x-----|-12--x--x--11--x--x--11----|
------------------------------|---------------------------|
--------------------------11--|---------------------------|
------------------------------|---------------------------|
------------------------------|---------------------------|

E                     B
-0----0----0---------|-------------------|
-5----5----5/7\5--4--|----4---4--5--4----|
------------------4--|----4---4--4--4----|
---------------------|-------------------|
---------------------|-------------------|
---------------------|-------------------|

F#                        
----------------------|----------------------|
----------------------|----------------------|
-6----6----6--4--6----|-6----6----6--4--6----|
-4----4----4--4--4----|-4----4----4--4--4----|
----------------------|----------------------|
----------------------|----------------------|
Tap to rate this tab
# A B C D E F G H I J K L M N O P Q R S T U V W X Y Z