Song name
# A B C D E F G H I J K L M N O P Q R S T U V W X Y Z

Bon Jovi - Wanted Dead Or Alive Live tab

Artist: Richie Sambora(Bon Jovi)
Song: Wanted dead or alive(Live in London 1995)
Album: Slippery when wet
Tab by jaime_ayala93@hotmail.com

                        
h: hammer on
p: pull off
/: slide
~: vibrato
*: harmónico artificial
b: bend
r: return bend
x: mude note
                  WANTED DEAR OR ALIVE SOLO (LIVE IN LONDON/95)

e|--------------------------------------------------------------------------|
b|--------------------------------------------------------------------------|
g|--------------------------------------------------------------------------|
D|------7/5-5/7-7/5-5/7----5/3-----3-5-5b7*-5b7*-5b7*-5b7*-5b7*-3*----------|
A|-15/--5/3-3/5-5/3-3/5----7/5-3-5------------------------------------------|
E|-15/----------------------------------------------------------------------|

e|-------------13-15-15b17--15b17-15-13-------------------------------------|
b|-------13-15--------------------------------------------------------------|
g|-12-14--------------------------------------------------------------------|
D|--------------------------------------------3*-5-3-7-5--xx-3/5------------|
A|---------------------------------------15/-----5-3-5-3--xx-5/7------------|
E|---------------------------------------15/--------------------------------|

e|--------------------------------------------------------------------12----|
b|------------------------------------------------------------12------------|
g|------------------------------------------------------10b12----10b12------|
D|----------3*---------3*-5--3b5r3*-3---3-----3b5r3*-3----------------------|
A|-12/--3-5----5---3-5----------------5---5-3-------------------------------|
E|---------------5----------------------------------------------------------|

e|--------------------------------------------------------------------------|
b|--------------------------------------------------------------------------|
g|-10b12r10-10~-------------------------------------------------------------|
D|---------------5-3---3--7-5--xx-7~----------------------------------------|
A|-------------------5----5-3--xx-5~----------------------------------------|
E|~-------------------------------------------------------------------------|

Note: You can add some palm mute in some parts to get a more real sound
Tap to rate this tab
 
# A B C D E F G H I J K L M N O P Q R S T U V W X Y Z