Song name
# A B C D E F G H I J K L M N O P Q R S T U V W X Y Z

Bon Jovi - Its My Life Acoustic tab

Title   : It's my Life [Acoustic]
Artist  : Bon jovi
Album   : This Left Feels Right
Tuning  : E-A-D-G-B-e [Standard]
Capo    : 5. fret

I tabbed this song like it sounds in this video

http://www.youtube.com/watch?v=Qn0CrLyeUaY&feature=related

This isn't exactly what the guitarist is playing but it sounds very similar I think.
I hope you like it.

----------------------------------------------------

Chords:

Em    =  022000
C     =  x32010
D     =  xx0232
G     =  320003
A     =  x02220

----------------------------------------------------



e|--------------------------------------------------------------------------|
B|-0--------0--1--0----------------0--------0--1--0-------------------------|
G|-0------0----------0--0--0-------0-----0-----------0--0--0----------------|
D|-2---2----------------2-----4-2--2--2-----------------2-----4--2----------|
A|-2--------------------3----------2--------------------3-------------------|
E|--------------------------------------------------------------------------|


VERSE 1:
Em                           C         D  
This ain't a song for the broken hearted
   Em                       C         D  
No silent prayer for the faith departed
   Em                   C
I ain't gonna be just a face in the crowd
            G                     A
Your gonna hear my voice when I shout it out loud


CHORUS:
         Em
It's my life
     C            G
It's now or never
               D            Em
I aint gonna live for ever
             C                 D
I just wanna live while I'm alive
          Em
It's my life
                      C         G
My heart is like an open highway
                     D             Em
Like Frankie said I did it my way
               C               D
I just wanna live while I'm alive

Cause It's my life


e|----------------------------------------|
B|-0--------0--1--0-----------------------|
G|-0------0----------0--0--0--------------|
D|-2---2----------------2-----4-2---------|
A|-2--------------------3-----------------|
E|----------------------------------------|



VERSE 2:
Em                      C               D     
This is for ones who stood their ground
      Em                 C               D  
For Tommy and Gina who never backed down
    Em                       C
Tomorrows gettin harder make no mistake
  G                          A             
Luck aint even lucky gotta make your own breaks


CHORUS:
         Em
It's my life
     C            G
It's now or never
               D            Em
I aint gonna live for ever
             C                 D
I just wanna live while I'm alive
          Em
It's my life
                      C         G
My heart is like an open highway
                     D             Em
Like Frankie said I did it my way
               C               D
I just wanna live while I'm alive

It's my life

e|----------------------------------------|
B|-0--------0--1--0-----------------------|
G|-0------0----------0--2--0--------------|
D|-2---2----------------0-----4-2---------|
A|-2--------------------------------------|
E|----------------------------------------|



MIDDLE:
Em                        C         G
stand tall when they're callin you out now
       A                   
Just don't back down


CHORUS:
         Em
It's my life
     C            G
It's now or never
               D            Em
I aint gonna live for ever
             C                 D
I just wanna live while I'm alive
          Em
It's my life
                      C         G
My heart is like an open highway
                     D             Em
Like Frankie said I did it my way
               C               D
I just wanna live while I'm alive

Cause It's my life


e|-----------------------------------------------|
B|------0--1--0---------------0--1--0------------|
G|----0----------0--0------0-----------0--0------|
D|-2----------------2---2-----------------2------|
A|------------------2---------------------2------|
E|-----------------------------------------------|

Tap to rate this tab
# A B C D E F G H I J K L M N O P Q R S T U V W X Y Z