Song name
# A B C D E F G H I J K L M N O P Q R S T U V W X Y Z

Bon Jovi - Thorn In My Side tab

-------------------------------------------------------------------------------
			     Thorn in My side - Bon Jovi
-------------------------------------------------------------------------------
Tabbed by:pelanmar
Email:pelanmar@yahoo.com

Tuning:Strandard

Great song...i got it by ear i think im the first to tab it all included the solo 
if you like it feel free to check out my when we were beautiful and fast cars tabs..

Intro and Verses

e|---------------------------------------------------------------------------|
B|---------------------------------------------------------------------------|
G|------0-----0------0---------0-----0------0-------0-----0------0-----------|
D|---------4-----4----------------4-----4---------------4-----4--------------|
A|-------------------------2-------------------------------------------------|
E|---0------------------------------------------3----------------------------|

e|---------------------------------------------------------------------------|
B|---------------------------------------------------------------------------|
G|--------0-----0------------------------------------------------------------|
D|------------4-----4/7\4----------------------------------------------------|
A|----5----------------------------------------------------------------------|
E|---------------------------------------------------------------------------|

Chorus
                  
e|---------------------------------------------------------------------------|
B|---------------------------------------------------------------------------|
G|------5----------3---------------------------------------------------------|
D|------5----5-----3---------------------------------------------------------|
A|------3----5-----5---------------------------------------------------------|
E|-----------3---------------------------------------------------------------|

Chorus 2:

Thorn in mi side...Thorn in mi side...Thorn in my side...Richie plays this...
e|---------------------------------------------------------------------------|
B|---------8--7--5--3--1-----------------------------------------------------|
G|------------------------0---2---------------------4----2-------------------|
D|---------------------------------------------------------------------------|
A|---------------------------------------------------------------------------|
E|---------------------------------------------------------------------------|

Solo:

e|---------------------------------------------------------------------------|
B|---------------------------------------------------------------------------|
G|---------------------------------------------------------------------------|
D|---------------------------------------5--7--7brp5-----5-------------------|
A|---------7--5--7-----7-----7--5--7------------------7----------------------|
E|---------------------------------------------------------------------------|

e|---------------------------------------------------------------------------|
B|-----------------------------------10--10-----8---10b--10--8---------------|
G|----------7--7-------7--7----9/11-----------------------------9------------|
D|-----7/9----------7--------------------------------------------------------|
A|---------------------------------------------------------------------------|
E|---------------------------------------------------------------------------|

e|---------------------------------------------------------------------------|
B|------8--------------------------------------------------------------------|
G|----------9p7------7---9-9p7-------7---9--9p7------7-----------------------|
D|---------------9---------------9----------------9------9---7---5-----------|
A|---------------------------------------------------------------------------|
E|---------------------------------------------------------------------------|

e|---------------------------------------------------------------------------|
B|---------------------------------------------------------------------------|
G|---------------------------------------------------------------------------|
D|-----7p5------5---7---7---7--7--7---7/19---19---19---19--------------------|
A|-----------7---------------------------------------------------------------|
E|---------------------------------------------------------------------------|

fast part....
e|---------------------------------------------------------------------------|
B|---------------------------------------------------------------------------|
G|----------------------------------------12h14p12----12-----12h15p12----12--|
D|----------------------12h14p12----12-------------14----14-----------14-----|
A|----12h14p12----12-------------14----14------------------------------------|
E|-------------14----14------------------------------------------------------|

e|-----15p12-15p12------15p12-15p12------15p12-15p12---------15b--15b--------|
B|------------------15---------------15---------------15---------------------|
G|---------------------------------------------------------------------------|
D|---------------------------------------------------------------------------|
A|---------------------------------------------------------------------------|
E|---------------------------------------------------------------------------|


************************************

| /   slide up
| \   slide down
| h   hammer-on
| p   pull-off
| ~   vibrato
| +   harmonic
| x   Mute note
| b   Bend
| pb  Pre-bend
| br  Bend release
| pbr Pre-bend release
| brb Bend release bend

************************************
Tap to rate this tab
 
# A B C D E F G H I J K L M N O P Q R S T U V W X Y Z