Song name
# A B C D E F G H I J K L M N O P Q R S T U V W X Y Z

Bon Jovi - Happy Now tab

-------------------------------------------------------------------------------
			     Happy Now - Bon Jovi
-------------------------------------------------------------------------------
Tabbed by:pelanmar
Email:pelanmar@hotmail.com

Tuning:standard

Intro:

e|---------------------------------------------------------------------------------|
B|--------15--13-------------------------------------------------------------------|
G|---12----------------------------------------------------------------------------|
D|---------------------------------------------------------------------------------|
A|---------------------------------------------------------------------------------|
E|---------------------------------------------------------------------------------|
Verse: wah wah pedal
repeat each note
e|-------------------------------------------------------------------------------|
B|-------------------------------------------------------------------------------|
G|-------------------------------------------------------------------------------|
D|-------------------------------------------------------------------------------|
A|------------2------------------3-----------------------------------------------|
E|----3-----------------0--------------------------------------------------------|

Chorus:
e|---------------------------------------------------------------------------|
B|---------------------------------------------------------------------------|
G|---------4----0----5-------------------------------------------------------|
D|---5-----4----2----5-------------------------------------------------------|
A|---5-----2----2----3-------------------------------------------------------|
E|---3----------0------------------------------------------------------------|

Solo:
e|--12--14--14b--14-12-14-12-------------------------------------------------|
B|----------------------------15b----12b--12b--12--12------------------------|
G|----------------------------------------------------14--14---12------------|
D|---------------------------------------------------------------------------|
A|---------------------------------------------------------------------------|
E|---------------------------------------------------------------------------|


************************************

| /   slide up
| \   slide down
| h   hammer-on
| p   pull-off
| ~   vibrato
| +   harmonic
| x   Mute note
| b   Bend
| pb  Pre-bend
| br  Bend release
| pbr Pre-bend release
| brb Bend release bend

************************************
Tap to rate this tab
 
# A B C D E F G H I J K L M N O P Q R S T U V W X Y Z