Song name
# A B C D E F G H I J K L M N O P Q R S T U V W X Y Z

Bon Jovi - Its My Life chords

Highlighted       Show chord diagrams
It's My Life - Bon Jovi


Capo 3 (Studio version)	  Capo 2 (Live, Jonny needs a break in his old age!)

Intro

e|--------------0--1--0-------------0--1--0---|
B|--1--1-----------------1--1-----------------|
G|--2--2-----2-----------2--2-----2-----------|
D|--2--2---2-------------2--2---2-------------|
A|--------------------------------------------|
E|--------------------------------------------|

Verse 1

Am (Strum Once - Mute)			                  Continue -Am
This ain't a song for the broken-hearted. No silent prayer for the faith-departed.

Am 						
I ain't gonna be just a face in the crowd, 

               D
you're gonna hear my voice when I shout it out loud 


Chorus:

Am		             F	               C		            G
It's my life, It's now or never. I ain't gonna live forever 
Am		               F	        G    
I just want to live while I'm alive 
E              Am	                     F	            C		            G
(It's my life) My heart is like an open highway. Like Frankie said I did it my way 

Am		               F	        G            E
I just wanna live while I'm alive.    It's my life 

Repeat Intro

Verse 2

Am 
This is for the ones who stood their ground. For Tommy and Gina who never backed down 
Tomorrow's getting harder make no mistake. 
D 
Luck ain't even lucky, got to make your own breaks 

Repeat Chorus

                    G       E    F  
Except end goes.. Cause it's my life

Then, during Solo, play -  G  Am   D

Am (Strum Once)
Better stand tall when they're calling you out 
Don't bend, don't break, baby, don't back down 

Repeat Chorus (2x)

End 2nd Chorus with: 

 G      E    no chord  
It's    my    life! 


This is my first tab, I think I got it on the nose, but comments are always 
welcome  rlombo7@gmail.com

Please rate it!

Chords:     Am    D    F    C    G   
         e|-------2----1-------------|
         B|--1----3----1----1--------|
         G|--2----2----2-------------|
         D|--2---------3----2--------|
         A|------------3----3----2---|
         E|------------1---------3---|
Tap to rate this tab
# A B C D E F G H I J K L M N O P Q R S T U V W X Y Z