Bon Jovi - Hearts Breaking Even tab

Hearts Breaking Even-Bon Jovi
Tabber-Dave
e]---------------------------------------------------10-------10----|
B]------10b--10r-----------------10-10---10-10-------12-10----12----|
G]7-7------------11p9/7------7-9-------9--------7h9--------11----11-|
D]9-7--------------------7h9----------------------------------------|
A]----8-------------------------------------------------------------|
E]------------------------------------------------------------------|

e]10----------10-----12b-12r-10-12/13------------------------------|
B]12-10----10----10------------------------------------------------|
G]------11---------------------------------------------------------|
D]-----------------------------------------------------------------|
A]-----------------------------------------------------------------|
E]-----------------------------------------------------------------|

Enjoy!!
Tap to rate this tab
 
# A B C D E F G H I J K L M N O P Q R S T U V W X Y Z