Song name
# A B C D E F G H I J K L M N O P Q R S T U V W X Y Z

Bon Jovi - Come Back Tab tab

Help us improve GuitareTab! Take a short survey!
  
#-----------------------PLEASE-NOTE--------------------#
#this is the author's own work and presents their song.#
#you only use this file for private studios,scolarships#
#------------------------------------------------------#


bon jovi
come back from the album bon jovi

i don't know if this is the real tab but it sound great

INTRO

e-------------------------------------------------------\
b-------------------------------------------------------\
g-------------------------------------------------------\
d------------9------------9-/-10-------------5--4--3-0--\
a------------7--0000000---7-/-9--00000000000-3--2--1-0--\
e-------------------------------------------------------\

e-------------------------------------------------------\
b-------------------------------------------------------\
g-------------------------------------------------------\
d-----------9--------9-^^-------------------------------\
a-----------7-000000-7----------------------------------\
e-------------------------------------------------------\

final intro.

and then:

e-------------------------------------------------------\
b-------------------------------------------------------\
g-------------------------------------------------------\
d----------9--------9/10-------9/7--------5-4-3-0-------\
a----------7--0000--7/8--00000-7/5-000000-3-2-1-0-------\
e-------------------------------------------------------\

now that you're gone i can see what was goin'on AND......

E------------------\
B------------------\
G------------------\.....ANOTHER NIGHT IT'S FALLING....
D---9--------------\
A---7--------------\
E------------------\


CHORUS:

e---------------------------------\
b---------------------------------\
g---------------------------------\
d-----10/-9/--7-5---------5-4-3-0-\
a-----8/--7/--5-3---------3-2-1-0-\
e---------------------------------\

come back cause i need your love
come back.....


and after play the begin' again
Related for Come Back Tab tab