Song name
# A B C D E F G H I J K L M N O P Q R S T U V W X Y Z

Bon Jovi - Wanted tab

SONG: WANTED DEAD OR ALIVE
TABBED BY: ANDREW DUKE mission_man99@hotmail.com
COMMENTS: I HAVE READ MANY TABS AND NEVER FOUND THE RIGHT ONE SO HERE IS MINE (I AM POSITIVE IT IS RIGHT). I RECOMMEND THIS IS PLAYED ON A ACCOUSTIC 12 STRING. 

KEY:
|-^-| = Slide finger either up or down from notes either side.


CHORDS IN THE SONG:

D

e|--2--|
B|--3--|
G|--2--|
D|-----|
A|-----|
E|-----|

C            Or

e|--3--|	     e|-----|
B|--3--|	     B|--1--|
G|-----|	     G|-----|
D|--2--|	     D|--2--|
A|--3--|	     A|--3--|
E|-----|	     E|-----|

G

e|--3--|
B|--3--|
G|-----|
D|-----|
A|--2--|
E|--3--|

F            Or

e|-----|	     e|--1--|
B|--1--|	     B|--1--|
G|--2--|	     G|--2--|
D|--3--|	     D|--3--|
A|-----|	     A|--3--|
E|-----|	     E|--1--|



INTRO:
                                                                X2
e|-----13---------12---------10--------8-------5-------3------|
B|------------------------------------------------------------|
G|--14----14---12----12---10----10---9---9---5---5---4---4-4^3|
D|0----------0----------0----------0-------0-------0----------|
A|------------------------------------------------------------|
E|------------------------------------------------------------|
                                                      
e|--------------0------------0------------0---------|
B|--------------3------------3------------3---------|
G|--------------2------------2------------2---------|
D|--------0-3-0--------0-3-0--------0-3-0---0-5-3-0-|
A|--0-0-3--------0-0-3--------0-0-3-----------------|
E|--------------------------------------------------|


SONG:

VERSE 1:
It's (D)all the same (C)only the names will (G)change
And (C)ev'ryday(G) it seems we're (F)wasting a(D)way
(D)Another place where the (C)faces are so (G)cold
(C)I'd drive all (G)night just to (F)get back (D)home

CHORUS:
I'm a (C)cowboy(G) on a (F)steel horse I (D)ride
I'm (C)wanted(G) (F)dead or (D)alive
(C)Wanted(G) dead or (D)alive

PLAY THE INTRO LICK HERE.

VERSE 2:
Sometimes (D)I sleep (C)sometimes is not for (G)days
And (C)people I meet (G)always go their (F)separate (D)ways
Some (D)times you tell the day by the (C)bottle that you (G)drink
And (C)times when all you (G)do (F)is (D)think

CHORUS:
I'm a (C)cowboy (G)on a (F)steel horse I (D)ride
I'm (C)wanted, (G)wanted, (F)dead or (D)alive
(C)Wanted, (G)wanted, (F)dead or (D)alive
Ooooh dead or (D)alive

SOLO ELECTRIC

POST SOLO:
Ooooh and I'm a (C)cowboy (G)on a (F)steel horse I (D)ride
I'm (C)wanted, (G)wanted, (F)dead or (D)alive

VERSE 3: 
And I (D)walk these streets a loaded (C)six string on my (G)back
I (C)play for keeps (G)cause I (F)might not make it (D)back
I been (D)ev'ry where still I'm (C)standing (G)tall
I've (C)seen a million (G)faces and I've (F)rock them (D)all

CHORUS:
'Cause I'm a (C)cowboy (G)on a (F)steel horse I (D)ride
I'm (C)wanted, (G)wanted, (F)dead or (D)alive
Well (C)I'm a cowboy(G) I got (F)the night on my (D)side
I'm (C)Wanted, (G)wanted, (F)dead or (D)alive
I still (C)ride, still (G)ride
(F)Dead or a(D)live
(F)Dead or a(G)live, (F)dead or a(D)live,
(F)Dead or a(G)live, (F)dead or a(D)live,

ENDING:

INTRO:
                                                                
e|-----13---------12---------10--------8-------5-------3------|
B|------------------------------------------------------------|
G|--14----14---12----12---10----10---9---9---5---5---4---4-4^3|
D|0----------0----------0----------0-------0-------0----------|
A|------------------------------------------------------------|
E|------------------------------------------------------------|
                                                      
e|-----13---------12---------10--------8-------5-------3---|
B|---------------------------------------------------------|
G|--14----14---12----12---10----10---9---9---5---5---4---4-| THEN FINISH ON
D|0----------0----------0----------0-------0-------0-------| THE CHORD 'D'
A|---------------------------------------------------------|
E|---------------------------------------------------------|




Tap to rate this tab
# A B C D E F G H I J K L M N O P Q R S T U V W X Y Z