Song name
# A B C D E F G H I J K L M N O P Q R S T U V W X Y Z

Bon Jovi - Bounce Real tab

Help us improve GuitareTab! Take a short survey!
bounce, from the new album BOUNCE
TAB BY" Magdalena abbott *bonji*


-This a pretty rock song, so I hope you enjoy playing it

INTRO
E--------------------------------------------------------------------/
B--------------------------------------------------------------------/
G--------------------------------------------------------------------/
D----8-8-8/--7-7-7/-8--8--/--12-12-12-12-12-/-7-7-7-7-/-5-5-5-5------/
A----6-6-6/--5-5-5/-6--6--/--10-10-10-10-10-/-5-5-5-5-/-3-3-3-3------/
E--------------------------------------------------------------------/

play the intro part 2 TIMES

+ when jon starts to sing richie play a riff like this with a talk box (I guess)

E----------------------/
B----------------------/
G-----5--5-------------/
D-----5--5-------------/
A-----3--3-------------/
E----------------------/

I been knocked down so many times count’em out 6, 7,8,9
Written of like some bad deal, if you’re breathing you know how it feels
call it karma, call it luck, me I just don't give a..........

CHORUS

bounce, bounce
E--------------------------------------------------------------------/
B--------------------------------------------------------------------/
G--------------------------------------------------------------------/
D----8-8-8/--7-7-7/-8--8--/--12-12-12-12-12-/-7-7-7-7-/-5-5-5-5------/
A----6-6-6/--5-5-5/-6--6--/--10-10-10-10-10-/-5-5-5-5-/-3-3-3-3------/
E--------------------------------------------------------------------/
nothin's gonaa keep me down bounce, bounce
stand up shout it out bounce, bounce
I play hard, I play to win, count me out, count me in
I'll be bouncing back again
(final chorus)

This ain't no game, I play it hard
E----------------------/
B----------------------/
G-----5--5-------------/
D-----5--5-------------/
A-----3--3-------------/
E----------------------/
kicked around, cut, stitched and scarred....


CHORUS
bounce, bounce nothin's.........

AFTER THE CHORUS PLAY THE SOLO:

E--------------------------------------------------------/
B--------------------------------------------------------/
G--------------------------------------------------------/
D--------------------------------------------------------/
A-----3-3--5-6-5-3----3-3-5-6-5----3-3-5-6-5-------------/
E----------------------------------------------4-4-3-4-4-/

E--------------------------------------------------------------------/
B--------------------------------------------------------------------/
G--------------------------------------------------------------------/
D--------------------------------------------------------------------/
A-----3-3--5-6-5-3----3-3-5-6-5----3-3-5-6-5-------------------------/
E----------------------------------------------4-4-3-4-4--4-4-3-4-4--/

Bring it on, I like it rough, in your face I call your bluff
it ain't karma, it ain't luck, me I just don't give a .....

CHORUS

THAT'S ALL so fun it:)
Related for Bounce Real tab