Song name
# A B C D E F G H I J K L M N O P Q R S T U V W X Y Z

Bon Jovi - Bed Of Roses tab

Bon Jovi - Bed Of Roses
(Keep The Faith - 1992)

Coisos, executados durante a m?sica:

Coiso 1:
e|--------|
B|-3h4-3~-|
G|--------|
D|--------|
A|--------|
E|--------|

Coiso 2:
e|--------------------|
B|--------------------|
G|-12--10-------------|
D|---------10h12-/12~-|
A|--------------------|
E|--------------------|

Coiso 3:
e|----15b17--r-13h15-------|
B|-15-----------------13~~-|
G|-14----------------------|
D|-15----------------------|
A|-------------------------|
E|-------------------------|

Coiso 4:
e|----------------|
B|----------------|
G|----------------|
D|-3------------5-|
A|-3------------3-|
E|-1---1--3--1--0-|

Coiso 5:
e|------------------------|
B|------------------------|
G|------------------------|
D|-3-------------------3--|
A|-3-------------------3--|
E|-1---1-3b5-3b5-3b5-3-1--|

Coiso 6:
e|---------------------|
B|---------------------|
G|---------------------|
D|------------3--------|
A|--------0-3----------|
E|-1~---1-------1~~~~~-|

Coiso 7:
e|-10-13-------------------|
B|-10----10-13-------------|
G|-10----------10-12-------|
D|-------------------12~~--|
A|-------------------------|
E|-------------------------|

Coiso 8:
e|----15-13~~~~--12~~~~--10~~--10----------|
B|-13------------------------------13~~~~--|
G|-----------------------------------------|
D|-----------------------------------------|
A|-----------------------------------------|
E|---P.M.----------------------------------|

Coiso 9:
e|-----------13-15-13-15b17---15b17--r-13h15--b17--|
B|-----15-17---------------------------------------|
G|-/14---------------------------------------------|
D|-------------------------------------------------|
A|-------------------------------------------------|
E|-------------------------------------------------|

Coiso 10:
e|----------|
B|-15~~~~~~-|
G|----------|
D|----------|
A|----------|
E|----------|


Parte do piano (convertido para guitarra):
  (Bb)                    (F)
e|-3-1---3-1---3-1---3-1---3-1---3-1---3-1---3-1---|
B|-----3-----3-----3-----3-----1-----1-----1-----1-|
G|-------------------------------------------------|
D|-------------------------------------------------|
A|-------------------------------------------------|
E|-------------------------------------------------|

Intro:  (a base do solo ? c/ a parte do piano)

      Bb               F               Bb                   F
e|-12b13---12--10------8------|--10-12-b13--r12--10--------------------|
B|-10--------------10-----10--|--10------------------13b15--r13-10h13--|
G|-10-------------------------|--10------------------------------------|
D|----------------------------|----------------------------------------|
A|----------------------------|----------------------------------------|
E|----------------------------|----------------------------------------|
            Bb                   F                   Bb                  F
e|-10-12-12b13---12--10--------------------|--10-12-b13---12--10-----------------|
B|-10--------------------13b15---13h15-13--|--10-------------------13b15---10h13-|
G|-10--------------------------------------|--10---------------------------------|
D|-----------------------------------------|-------------------------------------|
A|-----------------------------------------|-------------------------------------|
E|-----------------------------------------|-------------------------------------|


Verso 1: (A parte do piano continua nos acordes de Bb e F)

 Bb                                           F
Sitting here wasted and wounded at this old piano
        Bb
Trying hard to capture the moment
                F
this morning I don't know
          Am
'Cause a bottle of vodka
          Bb
is still lodged in my head
           F
And some blond gave me nightmares
                           Bb (Coiso 1)
I think she's still in my bed
       Bb
As I dream about movies
      C                         F
they won't make of me when I'm dead


Verso 2:

        Bb
With an ironclad fist
                               F     (Coiso 2) 
I wake up and French kiss the morning
            Bb
While some marching band keepsits own beat in my head
             F     (Coiso 3)
While we're talking
      Am                        Bb
About all of the things that I long to believe
       F
About love and the truth and what you mean to me
                                                (Coiso 4)
          Bb    (Coiso 1)  Bb         C           F    C
And the truth is          baby you're all that I need


Refr?o:
                                   (Coiso 5)
           Dm      C         Bb     F
I want to lay you down in a bed of roses
       Dm      C         Bb     F   (Coiso 6)
For tonite I sleep on a bed of nails
           Bb          F           Bb    F
I want to be just as close as the Holy Ghost is
     Dm  C   Bb             F
And lay you down on bed of roses


Verso 3:

          Bb
Well I'm so far away
                                     F      (Coiso 7)
That each step that I take is on my way home
          Bb
A king's ransom in dimes I'd given each night
                          F      (Entra Coiso 8)
Just to see through this payphone
         Am
Still I run out of time
         Bb
Or it's hard to get through
          F (Acaba Coiso 8)
Till the bird on the wire, flies me back to you
      Bb           (Coiso 1)
I'll just close my eyes      and whisper,
               (Coiso 4)
 Bb    C        F
Baby blind love is true

                       C
(Repetir refr?o) (Coiso 4)


Ponte:

            Bb                  C
Well, this hotel bar hangover whiskey's gone dry
        F
The barkeeper's wig's crooked, and she's giving me the eye
   Bb
I might have said yeah              (Coiso 4)
       Bb         C           F           C
But I laughed so hard I think I died      ooh yeah


Solo:
        Dm         C     Bb   F                              Dm           C
e|-----------------------------------------------10-------------------------------|
B|--------------------------------------------------13p10-13b15~--13b15~--13~~~~~-|
G|--------------------------------------------------------------------------------|
D|-----------3-5-5b7---5b7~---3h5-------------------------------------------------|
A|--5-3-5~-------------------------3~--3h5----------------------------------------|
E|-----------------------------------------/5~------------------------------------|
      Bb   F                                                           Dm
e|-13b15---13~---13-10----10-------------------------------------13-15b17---15b17--|
B|---------------------13----13-10---10-13-13b15~----------15-17-------------------|
G|---------------------------------9------------------/14--------------------------|
D|---------------------------------------------------------------------------------|
A|---------------------------------------------------------------------------------|
E|---------------------------------------------------------------------------------|
               C  Bb     F                               Dm      C       Bb e|-17-15p13-17b18---r17--13h15----------------------10-12b13-r12-12--b13-13~~~~~~~~-|
B|------------------------------13~~~-13h15---------10------------------------------|
G|------------------------------------------14~~~---10------------------------------|
D|----------------------------------------------------------------------------------|
A|----------------------------------------------------------------------------------|
E|----------------------------------------------------------------------------------|


Verso 4:

F            Bb
     Now as you close your eyes
                        F
Know I'll be thinking about you
          Bb
While my mistress she calls me
                         F
To stand in her spotlight again
          Bb
Tonite I won't be alone, but you know that don't
              F
Mean I'm not lonely
          Dm          C
I've got nothing to prove
                               (Coiso 4)
          Bb                    F     C
For it's you that I'd die to defend


Outro refr?o:

           Dm      C         Bb     F   (Coiso 5)
I want to lay you down in a bed of roses
       Dm      C         Bb     F   (Coiso 6)
For tonite I sleep on a bed of nails
           Bb          F           Bb    F
I want to be just as close as the Holy Ghost is
     Dm  C   Bb  (Coiso 9)
And lay you down

(Coiso 10 - ? tocado no in?cio do refr?o)

(Repetir refr?o)

__________________________________________________
Transcrito por Librenz em Janeiro/2002, no Brasil.
Tap to rate this tab
# A B C D E F G H I J K L M N O P Q R S T U V W X Y Z