Song name
# A B C D E F G H I J K L M N O P Q R S T U V W X Y Z

Bon Jovi - Blaze Of Glory tab

Jon Bon Jovi - Blaze Of Glory
(Blaze Of Glory - 1990)

Coisos, executados no decorrer da m?sica:

Coiso 1: ? tocado por um viol?o e uma guitarra.
Parte da guitarra:
  D
e|---------------------------------------------|
B|---------------------------------------------|
G|---------------------------------------------|
D|-7-------------------------------------------|
A|-5--(...deixar soar...)----------------------|
E|---------------------------------------------|
Parte do viol?o:
e|---------------8-10----------------------------|
B|-8-/10--10-10-------10--------6-/8-8-8--5-6----|
G|--------------------------------------------7--|
D|-----------------------------------------------|
A|-----------------------------------------------|
E|-----------------------------------------------|

Coiso 2: ? tocado por um viol?o e uma guitarra.
Parte da guitarra:
           D
e|-------------------------------------------------------|
B|-------------------------------------------------------|
G|-------------------------------------------------------|
D|---------7---------------------------------------------|
A|---------5--(...deixar soar...)------------------------|
E|-------------------------------------------------------|
Parte do viol?o:
e|-----------------------8-10----------------------------|
B|---------8-/10--10-10-------10--------6-/8-8-8--5-6----|
G|----------------------------------------------------7--|
D|-------------------------------------------------------|
A|-------------------------------------------------------|
E|-------------------------------------------------------|
Parte 2 da guitarra:
           D
e|-------------------------------------------------------|
B|-------------------------------------------------------|
G|-------------------------------------------------------|
D|-------3-7---------------------------------------------|
A|-0-3-5---5--(...deixar soar...)------------------------|
E|-------------------------------------------------------|
Parte 2 do viol?o:
e|-----------------------8-10----------------------------|
B|---------8-/10--10-10-------10--------6-/8-8-8--5-6----|
G|----------------------------------------------------7--|
D|-------------------------------------------------------|
A|-------------------------------------------------------|
E|-------------------------------------------------------|

Coiso 3: ? tocado por um viol?o e uma guitarra.
Parte da guitarra:
           D
e|-------------------------------------------------------|
B|-------------------------------------------------------|
G|-------------------------------------------------------|
D|---------7---------------------------------------------|
A|---------5--(...deixar soar...)------------------------|
E|-------------------------------------------------------|
Parte do viol?o:
e|-----------------------8-10----------------------------|
B|---------8-/10--10-10-------10--------6-/8-8-8--5-6----|
G|----------------------------------------------------7--|
D|-------------------------------------------------------|
A|-------------------------------------------------------|
E|-------------------------------------------------------|
Parte 2 da guitarra:
           D
e|--------------------------------------------------------|
B|--------------------------------------------------------|
G|--------------------------------------------------------|
D|-------3-7----------------------------------------------|
A|-0-3-5---5--(...deixar soar...)-------------------------|
E|--------------------------------------------------------|
Parte 2 do viol?o:
e|-----------------------8-10-------------------------2---|
B|---------8-/10--10-10-------10--------6-/8-8-8--5-6-3---|
G|----------------------------------------------------2---|
D|----------------------------------------------------0---|
A|--------------------------------------------------------|
E|--------------------------------------------------------|

?ltimo coiso:
e|--------------------------------------------|
B|--------------------------------------------|
G|---7-5---5-7---------------------7-5--------|
D|-7-----7---------7-5---5-------------7------|
A|---------------------8---8-8~----------5~~~-|
E|--------------------------------------------|

Intro 1: ? tocada por um viol?o e uma guitarra.
Parte da guitarra:
e|-------------------------------------|
B|-13b15r13~---------------------------|
G|--------------(tocar aqui------------|
D|---------------a parte do------3-----|
A|-----------------viol?o)---------5~~-|
E|-------------------------------------|
Parte do viol?o:
e|---------------8---------------------|
B|-----------------10--6---------------|
G|-----------------------7---5---------|
D|-----------------------------7-------|
A|-------------------------------------|
E|-------------------------------------|

Intro 2: Coiso 1

Intro 3: ? tocada por um viol?o e uma guitarra.
Parte da guitarra:
         D              D                 D              D
e|---------------------------------------------------------|
B|---------------------------------------------------------|
G|---------------------------------------------------------|
D|-------7--7-7-7-------7--------------3--7--7-7-7-------7-|
A|-0--3--5--5-5-8p5--3--5-----0--3--5-----5--5-5-8p5--3--5-|
E|---------------------------------------------------------|
Parte do viol?o:
         D                                D
e|-------2--2-2-2-2--2--2-10--------------2--2-2-2-2--2--2-------|
B|-------3--3-3-3-3--3--3-----------------3--3-3-3-3--3--3-------|
G|-------2--2-2-2-2--2--2-----------------2--2-2-2-2--2--2-------|
D|-------0--0-0-0-0--0--0-----------------0--0-0-0-0--0--0-2/3-0-|
A|---------------------------------------------------------------|
E|---------------------------------------------------------------|
Parte 2 da guitarra:
         D              D                 D
e|---------------------------------------------------------|
B|---------------------------------------------------------|
G|---------------------------------------------------------|
D|-------7--7-7-7-------7--------------3--7--(...deixar----|
A|-0--3--5--5-5-8p5--3--5-----0--3--5-----5------soar...)--|
E|---------------------------------------------------------|
Parte 2 do viol?o:
         D                                D
e|-------2--2-2-2-2--2--2-10--------------2----------------|
B|-------3--3-3-3-3--3--3-----------------3----------------|
G|-------2--2-2-2-2--2--2-----------------2--(...deixar----|
D|-------0--0-0-0-0--0--0-----------------0------soar...)--|
A|---------------------------------------------------------|
E|---------------------------------------------------------|

Solo: ? feito pela guitarra 2.
  G                                       D                    G
e|-13b15~~-13b15~~-----------------------------------------------------------------|
B|-------------------12p10------------------------------------10br--10-------------|
G|-------------------------12-10------14r12-------10-10-10----10br-----10-12~------|
D|-------------------------------12---------12-12----------12----------------12----|
A|------------------------------------------------------------------------------12-|
E|---------------------------------------------------------------------------------|
  D                                 G                                 D 
e|---------------------------------------------------------------------------------|
B|--------------------------------------------------------------------13~-10----10-|
G|---------------------------------------------9--12b--12-12p10h12-10--------10----|
D|------------------------------------------7--------------------------------------|
A|-8~----8----8----8----8----8-10-10b--8-10----------------------------------------|
E|----10---10---10---10---10-------------------------------------------------------|
                    F                            G          D 
e|-----------------------------------------------13b15r13--|-----20b22~~--20-22-25-20b22~-|
B|--------------10--10b\-------9b10-------10-13--13b15r13--|------------------------------|
G|--------10--------10b---/10b---------10------------------|------------------------------|
D|-12-12-----12-----------------------------------------(entra----------------------------|
A|-------------------------------------------------------coiso-1)-------------------------|
E|---------------------------------------------------------|------------------------------|


Introdu??o:
Intro 1
Intro 2 (2x)
Intro 3

(A Base desse 1? verso quase n?o existe, deve ser bem suave.)

Dm
I wake up in the morning
       C
And I raise my weary head
            G
I've got an old coat for a pillow
          Dm
And the earth was last night's bed
   F
I don't know where I'm going
 C
Only God knows where I've been
       G
I'm a devil on the run
A six gun lover
   Dm
A candle in the wind, yeah!

(Coiso 2)

      Dm
When you've brought into this world
      C
They say you're born in sin
          G
Well at least they gave me something
    Dm
I didn't have to steal or have to win
        F
Well they tell me that I'm wanted
  C
Yeah, I'm a wanted man
       G
I'm a colt in your stable
I'm what Cain was to Abel
        Dm
Mister catch me if you can

           G                   D
I'm going down in a blaze of glory
         G                 D
Take me now but know the truth
           G                  D
I'm going out in a blaze of glory
        C
Lord I never drew first
But I drew first blood
       G
I'm no one's sone
Call me young gun
	
(Coiso 1)

    Dm
You ask about my conscience
      C
And I offer you my soul
        G
You ask if I'll grow to be a wise man
       Dm
Well I ask if I'll grow old
    F
You ask me if I've known love
           C
And what it's like to sing songs in the rain
         G
Well, I've seen love come
And I've seen it shot down
      Dm
I've seen it die in vain

      G                   D
Shot down in a blaze of glory
         G                 D
Take me now but know the truth
                  G                   D
'Cause I'm going down in a blaze of glory
        C
Lord I never drew first
But I drew first blood
         G
I'm the devil's son
Call me young gun

(Coiso 2)
(Solo) G D G D G D F G
(Coiso 2)

      Dm
Each night I go to bed
            C
I pray the Lord my soul to keep
                    G
No I ain't looking for forgiveness
                Dm
But before I'm six foot deep
               F
Lord, I got to ask a favor
             C
And I hope you'll understand
                   G
'Cause I've lived life to the fullest
   Dm
Let this boy die like a man
  G
Staring down a bullet
   Dm
Let me make my final stand

      G                   D
Shot down in a blaze of glory
         G                 D
Take me now but know the truth
          G             D
I'm going out in a blaze of glory
        C
Lord I never drew first
But I drew first blood
           G
and I'm no one's son
               D     C
Call me young guuu...uuun
             G    D
I'm a young gun, yeah...
              C
Young gun... yeah, yeah, yeah!
       G      D
Young gun...     ah...

(Coiso 3)
(?ltimo coiso)

Finhe.

___________________________________________________
Transcrito por Librenz em Setembro/2001, no Brasil.
Tap to rate this tab
# A B C D E F G H I J K L M N O P Q R S T U V W X Y Z