Song name
# A B C D E F G H I J K L M N O P Q R S T U V W X Y Z

Bon Jovi - Welcome To Wherever You Are tab

Intro:

|--------------------------------------------------------------------------|
|--------------------------------------------------------------------------|
|-9---9-8---8-------------6----6-------------------------------------------|
|---9-----9---9--------7-----7---7-----------------------------------------|
|-------------------7------------------------------------------------------|
|-----------------5--------------------------------------------------------|

x2

Verse:

|----0----------0----------0----------0------------------------------------|
|----0----------0----------0----------0------------------------------------|
|----1----------2----------6----------2------------------------------------|
|----2----------2----------6----------2------------------------------------|
|----2----------0----------4----------0------------------------------------|
|----0---------------------------------------------------------------------|

x2

Pre Chorus:

|----0----------0----------0----------0------------------------------------|
|----0----------0----------0----------0------------------------------------|
|----4----------2----------4----------2------------------------------------|
|----4----------2----------4----------2------------------------------------|
|----2----------0----------2----------0------------------------------------|
|--------------------------------------------------------------------------|

x1

Chorus:

|----0----------0----------0----------0------------------------------------|
|----0----------0----------0----------0------------------------------------|
|----1----------4----------6----------2------------------------------------|
|----2----------4----------6----------2------------------------------------|
|----2----------2----------4----------0------------------------------------|
|----0---------------------------------------------------------------------|

|----0----------0----------0----------0------------------------------------|
|----0----------0----------0----------0------------------------------------|
|----1----------4----------6----------2------------------------------------|
|----2----------4----------6----------2------------------------------------|
|----2----------2----------4----------0------------------------------------|
|----0---------------------------------------------------------------------|

|----0----------0----------------------------------------------------------|
|----0----------0----------------------------------------------------------|
|----1----------4----------------------------------------------------------|
|----2----------4----------------------------------------------------------|
|----2----------2----------------------------------------------------------|
|----0---------------------------------------------------------------------|

Intro x1

Verse x2

Pre chorus x2

Chorus:

|----0----------0----------0----------0------------------------------------|
|----0----------0----------0----------0------------------------------------|
|----1----------4----------6----------2------------------------------------|
|----2----------4----------6----------2------------------------------------|
|----2----------2----------4----------0------------------------------------|
|----0---------------------------------------------------------------------|

|----0----------0----------0----------0------------------------------------|
|----0----------0----------0----------0------------------------------------|
|----1----------4----------6----------2------------------------------------|
|----2----------4----------6----------2------------------------------------|
|----2----------2----------4----------0------------------------------------|
|----0---------------------------------------------------------------------|

Be who you wanna be..
|----0----------0----------0----------0------------------------------------|
|----0----------0----------0----------0------------------------------------|
|----6----------2----------1----------4------------------------------------|
|----6----------2----------2----------4------------------------------------|
|----4----------0----------2----------2------------------------------------|
|--------------------------0-----------------------------------------------|


Intro x2

Chorus:

|----0----------0----------0----------0------------------------------------|
|----0----------0----------0----------0------------------------------------|
|----1----------4----------6----------2------------------------------------|
|----2----------4----------6----------2------------------------------------|
|----2----------2----------4----------0------------------------------------|
|----0---------------------------------------------------------------------|

|----0----------0----------0----------0------------------------------------|
|----0----------0----------0----------0------------------------------------|
|----1----------4----------6----------2------------------------------------|
|----2----------4----------6----------2------------------------------------|
|----2----------2----------4----------0------------------------------------|
|----0---------------------------------------------------------------------|

|----0----------0----------0----------0------------------------------------|
|----0----------0----------0----------0------------------------------------|
|----1----------4----------6----------2------------------------------------|
|----2----------4----------6----------2------------------------------------|
|----2----------2----------4----------0------------------------------------|
|----0---------------------------------------------------------------------|

|----0----------0----------0----------0------------------------------------|
|----0----------0----------0----------0------------------------------------|
|----1----------4----------6----------2------------------------------------|
|----2----------4----------6----------2------------------------------------|
|----2----------2----------4----------0------------------------------------|
|----0---------------------------------------------------------------------|

Tap to rate this tab
 
# A B C D E F G H I J K L M N O P Q R S T U V W X Y Z