Bon Jovi - This Is Our House tab

E|------------------------------------------------------------------------|
B|------------------------------------------------------------------------|
G|------------------------------------------------------------------------|
D|------------------------------------------------------------------------|
A|-9-9----7-7----9-9----7-7----9-9----7-7----12-12----11\9----9-9----7-7--|
E|-7-7----5-5----7-7----5-5----7-7----5-5----10-10-----9\7----7-7----5-5--|

E|------------------------------------------------------------------------|
B|------------------------------------------------------------------------|
G|------------------------------------------------------------------------|
D|------------------------------------------------------------------------|
A|-9-9----7-7----12-12----9-----------------------------------------------|
E|-7-7----5-5----10-10----7-----------------------------------------------|

This is my first ever tab, so dont be too critical, it sounds just about right
although comments are welcome, email address:

openchampion@hotmail.co.uk
Tap to rate this tab
 
# A B C D E F G H I J K L M N O P Q R S T U V W X Y Z