Song name
# A B C D E F G H I J K L M N O P Q R S T U V W X Y Z

Bon Jovi - Its My Life tab

Help us improve GuitareTab! Take a short survey!
It's My Life
by Jon Bon Jovi

Tuning: Drop C

Note: I hadn't seen any correct tabs for this song, cause in most tabs the 
opening chord is played in octave higher when in standard tuning. Upon 
listening to the song, the talkbox is a low C, and then i realized the chords 
follow suit. It pretty sure it's 100% right.


Intro:
D|------------------------------------------------------------|
A|-----------------10--11---10------------------10--11---10---|
F|--------------10---------------------------10---------------|
C|-0---0-----12-----------------0---0-----12------------------|
G|-0---0------------------------0---0-------------------------|
C|-0---0------------------------0---0-------------------------|

Verse: 2x
D|---------------------------------------------------|
A|-------------------------------------------11--10--|
F|-------------------------------------------x---x---|
C|-0--------------------------0---0-------0--8---7---|
G|-0--------------------------0---0-------0----------|
C|-0--------------------------0---0-------0----------|
    This aint a song... 
    No silent prayer....	

Pre-Chorus
D|-----------------------------------------------------------------|
A|-----------------------------------------------------------------|
F|-------------------------------------7~---7----------------------|
C|-0~----------------------------------7~---7----------------------|
G|-0~----------------------------------5~---5----------------------|
C|-0~--------------------------------------------------------------|
  I aint gonna...                  Your gonna hear...

Chorus: 2x
D|---------------------------------------------------------------------------|
A|---------------------------------------------------------------------------|
F|---------7-7-7-7-7-7-7-7-----------------1010101010101010-9-9-9-9-9-9-9-9--|
C|---------7-7-7-7-7-7-7-7-8-8-8-8-8-8-8-8-1010101010101010-1010101010101010-|
G|---------5-5-5-5-5-5-5-5-8-8-8-8-8-8-8-8-8-8-8-8-8-8-8-8--7-7-7-7-7-7-7-7--|
C|---------0-0-0-0-0-0-0-0-8-8-8-8-8-8-8-8-----------------------------------|
  Its my Life.....

D|----------------------------------------------------------------|
A|----------------------------------------------------------------|
F|-7-7-7-7-7-7-7-7-10101010101010101010101010101010---------------|
C|-7-7-7-7-7-7-7-7-8-8-8-8-8-8-8-8-1010101010101010---------------|
G|-5-5-5-5-5-5-5-5-8-8-8-8-8-8-8-8-8-8-8-8-8-8-8-8--3~------4~----|
C|-0-0-0-0-0-0-0-0-8-8-8-8-8-8-8-8--------------------------------|
        I just wanna live...                    Its....My...

Repeat Intro

Repeat Verse

2nd Pre-Chorus
D|-----------------------------------------------------------------|
A|-----------------------------------------------------------------|
F|-------------------------------------7~--------------------------|
C|-0~----------------------------------7~--------------------------|
G|-0~----------------------------------5~--------------------------|
C|-0~--------------------------------------------------------------|
  Tomorrows gettin...              Luck aint even...

Repeat Chorus

Solo
D|-----------------------------------------------------------------|
A|-----------------------------------------------------------------|
F|-----------------------------------------------------------------|
C|-----------------------------------------------------------------|
G|-7-7b(8)-7-7b(8)-7-7b(8)-7-7b(8)-7-7b(8)-7-7b(8)-7-7b(8)-7-7b(8)-|
C|-----------------------------------------------------------------|

D|-----------------------------------------------------------------|
A|-----------------------------------------------------------------|
F|-----------------------------------------------------------------|
C|-----------------------------------------------------------------|
G|-7-7b(8)-7-7b(8)-7-7b(8)-7-7b(8)-7-7b(8)-7-7b(8)-7-7b(8)-7\5-----|
C|-----------------------------------------------------------------|

D|-------------------------------------------------------------------|
A|-------------------------------------------------------------------|
F|---10-12b(14)~----12b(14)-12b(14)-12b(14)--d(12)-12-12-12----------|
C|-7--------------------------------------------------------10-12~---|
G|-------------------------------------------------------------------|
C|-------------------------------------------------------------------|

D|------------------------------------------------------------------|
A|------------------------------------------------------------------|
F|------------------------------------------------------------------|
C|-----3---0~-------------------------------------------------------|
G|-3-5---5-0~-------------------------------------------------------|
C|---------0~-------------------------------------------------------|

Final Chorus 2x
D|--------|--------------------------------------------------------------------|
A|--------|--------------------------------------------------------------------|
F|--------|-----------------------------------------10~--------------9~--------|
C|-0---0--|---------0~--------------8~--------------10~----------101010~-------|
G|-0---0--|---------0~----------8-8-8~--------------8~-----------8-7-7~--------|
C|-0---0--|---------0~----------8-8-8~-----------------------------------------|
           Its My Life.... 	PM|                              - -

D|------------------------------------------------------------|
A|------------------------------------------------------------|
F|---------------------------------10~------------------------|
C|-0~--------------8~--------------10~------------------------|
G|-0~----------8-8-8~--------------8~-----------3~------4~----|
C|-0~----------8-8-8~-----------------------------------------|
               PM|                              "It's....My...."

Key
----
PM - Palm Mute
b  - Bend Up
d  - Bend Down
~  - Hold Note
x  - Mute Note





And Yer Done.
*please rate*
Related for Its My Life tab