Song name
# A B C D E F G H I J K L M N O P Q R S T U V W X Y Z

Bon Jovi - Two Story Town tab

Crush: "Two Story Town"
Artist: Jon Bon Jovi n Richie Sambora

Tabbed Guitar Kidd(guitar_kidd2500@yahoo.ca)

intro:
(guitar 1)
E|---------------------------------------------
B|--1-0----------------------------------------
G|--------2-0-2-----12h14-(x2)-14-12-----------
D|---------------------------------------------
A|---------------------------------------------
E|---------------------------------------------

(guitar 2)

Am | F | C | G | x2


guitar solo:

E|-------------------------------------------------------|
B|----8b10~~~~~--8b10r8--5--8b10~~~~~--8b10r8-5----------|
G|-----------------------------------------------7~~~~~~-|
D|-------------------------------------------------------|
A|-------------------------------------------------------|
E|-------------------------------------------------------|


E|---------------------------------10b10b10b10b10b10b10b-8--------|
B|---------------------------------------------------------10~~~~-|
G|------5-7b~~~~~r7~~~---5------7---------------------------------|
D|----7----------------7------------------------------------------|
A|----------------------------------------------------------------|
E|----------------------------------------------------------------|


E|-------------------------10b10b10b-8----------------------------|
B|----12b13r12---8---10-----------------10---8-10~~~~~------------|
G|----------------------------------------------------------------|
D|----------------------------------------------------------------|
A|----------------------------------------------------------------|
E|----------------------------------------------------------------|

that's all folks!
wish u'll like it.
if u have any comments just send it to my e-mail(guitar_kidd2500@yahoo.ca)

the greatest band on the world "BON JOVI"
the greatset guitar player of all "RICHIE SAMBORA"
Tap to rate this tab
# A B C D E F G H I J K L M N O P Q R S T U V W X Y Z