Song name
# A B C D E F G H I J K L M N O P Q R S T U V W X Y Z

Bon Jovi - You Give Love A Bad Name tab

Standard Tuning

E-----------------------------------------------------|
B-----------------------------------------------------|
G-----------------------------------------------------|
D-----------------------------------------------------|
A--10--6--8-8-10---6--10--8---------------------------|
E--08--4--6-6-08---4--08--6---------------------------|

E-----------------------------------------------------|
B-----------------------------------------------------|
G-----------------------------------------------------|
D----------1-1--------------1-1-----------------------|
A--3---1-3-----3-1--3---1-3-----3---------------------|
E----3----------------3-------------------------------|
Tap to rate this tab
 
# A B C D E F G H I J K L M N O P Q R S T U V W X Y Z