Guitaretab - guitar tabs
Song name
# A B C D E F G H I J K L M N O P Q R S T U V W X Y Z

Bon Jovi - Hey God tab

HEY GOD
BON JOVI
From the album THESE DAYS(1995)
Tabbed by Ro734
____________________________________________________________________________
This is one of the easiest Bon Jovi songs to actually play on the gtr(trust me-im only a kid
and I worked it out myself!)-the solos quite easy,same with the intro. Hav fun!
____________________________________________________________________________
Intro/Chorus(used in both):

e|-------------------------------------1~-|
B|-1h3~~~~-1h3~~~~-1h3~~~~-1h3~~~~-1h3----|
G|----------------------------------------|
D|----------------------------------------|
A|----------------------------------------|
E|----------------------------------------|

e|---------------------------------5p3-1-|
B|-1h3~~~~-1h3~~~~-1h3~~~~-1h3~~~~-------|
G|---------------------------------------|
D|---------------------------------------|
A|---------------------------------------|
E|---------------------------------------|
____________________________________________________________________________
Solo:

e|------------------------------------------------------------------------|
B|-3-5-6-5-3-1-----------3---3--1/3-3-3-1-1-1-1-1-1-1-1-1-1-1-1-1-1-1-1\0-|
G|-------------2-0-------2---2--------------------------------------------|
D|-----------------3-2-0-0-0-0--------------------------------------------|
A|------------------------------------------------------------------------|
E|------------------------------------------------------------------------|

e|------------------------------------------------------------------------|
B|-0-0-0-0-0-0-0-0-0-0-0-0-0-0-0-0----------------------------------------|
G|---------------------------------3-3-3-3-3-3-3-3-3-3-3-3-3-3-3-3--0~~~1-|
D|------------------------------------------------------------------------|
A|------------------------------------------------------------------------|
E|------------------------------------------------------------------------|

e|------------------------------------------------------------------------|
B|------------------------------------------------------------------------|
G|-1-1-1-1-1-2-2-2-2-2--0~~~1-1-1-1-1-1-2-2-2-2-2-2-2-2-2--1~~1-1-2~~2-2--|
D|------------------------------------------------------------------------|
A|------------------------------------------------------------------------|
E|------------------------------------------------------------------------|
[ Tab from: http://www.guitaretab.com/b/bon-jovi/28727.html ]
e|---------------|
B|---------------|
G|-1~~1-1-2~~2-2-|
D|---------------|
A|---------------|
E|---------------|
____________________________________________________________________________
Lyrics:
-------|
-INTRO-|
-------|
Verse 1:
Hey God I'm just a little man,
got a wife and family,
I almost lost the house I bought into the dream,
We're barely holdin' on,
'n' I'm in way too deep,
We're two paychecks away from livin'out on the streets
-----------------------|
-PRE-VERSE(play intro)-|
-----------------------|
Verse 2:
She's a workin' single mom,
like a saint she don't complain,
Never says a word but she thinks that she's to blame,
Her son just got convicted,
he blew some cop away,
She did her best to raise him but the world got in the way

Chorus:
Hey God,
tell me what the hell is goin' on,
seems like all the good ****'s gone,
Keeps on gettin harder hangin' on,
But Hey hey hey hey God,
these nights you know I wanna scream,
these days your even harder to belive,
I know how busy you must be,
But Hey hey hey hey God,
Do you ever think about me?

Verse 3:

Born into the ghetto in 1991,
Just a happy child playin'
Beneath the summer sun,
A vacant lot's his playground,
by 12 he's got a gun,
The odds are bet against him, Junior don't make 21

Chorus:
Hey God,
tell me what the hell is goin' on,
seems like all the good ****'s gone,
Keeps on gettin harder hangin' on,
But Hey hey hey hey God,
these nights you know I wanna scream,
these days your even harder to belive,
I know how busy you must be,
But Hey hey hey hey God,
Do you ever think about me?
------|
-SOLO-|
------|
Bridge:
I'd get down on my knees,
I'm gonna try this thing your way,
Seen a dying man too proud to beg, spit on his own grave,
Was he too gone to save?
Did you even know his name?
Are you the one to blame?
I got something to say,

Chorus:
Hey God,
tell me what the hell is goin' on,
seems like all the good ****'s gone,
Keeps on gettin harder hangin' on,
But Hey hey hey hey God,
these nights you know I wanna scream,
these days your even harder to belive,
I know how busy you must be,
But Hey hey hey hey God,
Do you ever think about me?
============================================================================

| / = slide up
| \ = slide down
| h = hammer-on
| p = pull-off
| ~ = vibrato
============================================================================
Related for Hey God tab
Advertisement will be closed in 10 seconds