Guitaretab - guitar tabs
Song name
# A B C D E F G H I J K L M N O P Q R S T U V W X Y Z

Bon Jovi - Shot Through The Heart tab

Song: Shot Through The Heart
Album: Bon Jovi (1984)
Artist: Bon Jovi
Tuning: Standard
Tabber: Jeppe

b Bend

Intro
e|-------------------------------------------------------------------------|
B|-----0-------------------------------------------------------------------|
G|----2-2----0-2-0-----0-----0-2-0-----------------------------------------|
D|---2---2--0-----0---3-3---0-----0--------------------x3------------------|
A|--0----------------3---3-------------------------------------------------|
E|---------3--------1------3-----------------------------------------------|

Verse
e|-------------------------------------------------------------------------|
B|-------------------------------------------------------------------------|
G|-2-2-------2-2-----2-2----2-2----2-2-------------------------------------|
D|-2-2-------2-2-----2-2----2-2----2-2-------------------------------------|
A|-0-0-------0-0-----0-0----0-0----0-0-------------------------------------|
E|-------------------------------------------------------------------------|

Pre Chours
e|-------------------------------------------------------------------------|
B|----------------------------------5-5-3-3-1-1----------------------------|
G|-----------------2-2-2-2-2-2-2----------------4-4------------------------|
D|--5-----3---5----2-2-2-2-2-2-2----------------------3------5-------------|
A|--5-----3---5----0-0-0-0-0-0-0----------------------3------5-------------|
E|--3-----1---3---------------------------------------1------3-----8-7-----|

Chours
e|-------------------------------------------------------------------------|
B|-------------------------------------------------------------------------|
G|-------------------------------------------------------------------------|
D|-------------------------------------------------------------------------|
A|-7--5--3---5-5-5-5--7--5--3--5-5-5-5-------------------------------------|
E|-5--3--1---3-3-3-3--5--3--1--3-3-3-3-------------------------------------|
[ Tab from: http://www.guitaretab.com/b/bon-jovi/29974.html ]
Verse
After the third A play this 
e|-------------------------------------------------------------------------|
B|--5----7---12-----7----12------------------------------------------------|
G|---5----7----12----7-----------------------------------------------------|
D|----5----7-----12---7----------------------------------------------------|
A|-------------------------------------------------------------------------|
E|-------------------------------------------------------------------------|

Pre Chours
Right before the pre chours play this
e|-------------------------------------------------------------------------|
B|-------------------------------------------------------------------------|
G|---7----5----------------------------------------------------------------|
D|----------3--2--0--------------------------------------------------------|
A|--5---5------------------------------------------------------------------|
E|-------------------------------------------------------------------------|

Chours
Solo, i did not have time for the solo, play the chours on the solo
Pre Chours
Bridge
e|-------------------------------------------------------------------------|
B|-------------------------------------------------------------------------|
G|------------------12-----------------10-----------------12---------------|
D|------------------12-----------------10-----------------12------x3-------|
A|--0-0-0-0-0-0-0-0----0-0-0-0-0-0-0-0----0-0-0-0-0-0-0-0------------------|
E|-------------------------------------------------------------------------|

Chours 
After Chours play this until the end
e|----------------------------------------------------------------------17-|
B|----------------------------------------------------------------------20b|
G|----------5--4---------5--4---------5-4---------5-4-------16-14--17-16---|
D|------------------------------------------------------x-4----------------|
A|--0-0-0------------------------------------------------------------------|
E|----------------3-3-3--------1-1-1--------3-3-3--------------------------|


This tab is 100 % correct ! Any questions email jeppe_killen@hotmail.com
Related for Shot Through The Heart tab
Advertisement will be closed in 10 seconds