Song name
# A B C D E F G H I J K L M N O P Q R S T U V W X Y Z

Bon Jovi - No Apologies tab

                                       Bon Jovi - No Apologies solo
                                         Tabbed by FrAceofSpades


Here's what i ear
The Key is Eb. (Ionien mod).
Tempo = 132

I tried to write a proper rythm, the "I" under the tab are here for the tempo.
So 4- are really 2- + 2-, etc.
in other words : ---- = une noire
                 -- = une croche
                 ------ = une noire pointée
                 - = une double croche
                 ...  it's french, don't know the english for that, google is your friend ;)

/    = slide
(x)  = let ring
wmwm = tremolo or something called like that, with your left hand finger
       wm = --, wmwm = ----, ...
*    = palm muting


E||--------------------------|------------------------------|
B||--------------------------|------------------------------|
G||12----12----12--10--12--13|(13)----13----13--12--10------|
D||------13---(13)---------13|(13)----13----13----------13--|
A||--------------------------|------------------------------|
E||--------------------------|------------------------------|
   I     I     I       I      I       I     I       I

E||--------------------------|---------------------------|
B||--------------------------|---------------------------|
G||12----12----12--15--12----|---------------------------|
D||------13---(13)---------15|(15)--------12wmwmwm--13*--|
A||--------------------------|---------------------------|
E||--------------------------|---------------------------|
   I     I     I       I      I      I    I     I

E||--------------------------------------|--------------------------------|
B||--------------------------------------|-----13wmwmwmwmwm-------------15|
G||--------------15wmwmwmwmwm------------|--------------------------------|
D||13*-------13*---------------13*-------|13*----------------------13*----|
A||-----13*-------------------------13*--|---------------13*--13*---------|
E||--------------------------------------|--------------------------------|
   I       I       I       I       I       I       I     I         I

E||---------------------------------|------------------------------------|
B||(15)wmwm-----------------16wmwmwm|16-15-13----13----------------------|
G||---------------------------------|---------15----15-13-12-13-12-------|
D||----------13*-------13*----------|------------------------------15-13-|
A||--------------13*----------------|------------------------------------|
E||---------------------------------|------------------------------------|
   I       I       I       I         I           I           I

   -----------|------------------------|-----------------------|
   -----------|------------------------|-----------------------|
   -----------|------------------------|------/15wmwmwmwmwmwm--|
   15-13-12---|----------12------13----|(13)-------------------|
   ---------15|(15)--------------------|-----------------------|
   -----------|------------------------|-----------------------|
   I           I      I     I    I      I     I      I     I
Tap to rate this tab
# A B C D E F G H I J K L M N O P Q R S T U V W X Y Z