Song name
# A B C D E F G H I J K L M N O P Q R S T U V W X Y Z

Bon Jovi - Pictures Of You tab

Title: Pictures Of You
SubTitle: Solo
Artist: Bon Jovi
Album: What About Now
Tempo = 120
Electric Guitar

Legend
L - tied note
x - dead note
h - hammer on/pull off
b - bend
s - slide
~ - vibrato
g - ghost note
> - accentuated note
t - trill
M - palm mute
. - staccato
P - popping (bass)
S - slapping (bass)
+ - tapping
W - wide vibrato
< - fade in
w - whammy bar
= - tremolo picking
v - brush up
^ - brush down
V - pick stroke up
n - pick stroke down


E |-------|
B |-------|
G |-------|
D |-------|
A |--3~---|
E |-------|


--------------------------------------------------------------------------------|
-/5-----------------------------------------------------------------------------|
--------------------------5-----------------------------------------------------|
--------------------------------------------------5-----------------------------|
--------------------------------------------------------------------------7-----|
--------------------------------------------------------------------------------|


--------------------------------------------------------------------|-------|
--------------------------------------------------------------------|-------|
--------------------------------------------------------------------|-------|
--------------------------------------------------------------------|-------|
------------------------------------------------5--------3----------|-------|
--------------------------------------------------------------------|--5~---|


----------|-------|-----------------------4--7b8----------8rb7---------|
----------|-------|--------------------5-------------------------------|
----------|-------|-----------4----------------------------------------|
-----7----|--6----|--/6------------------------------------------------|
----------|-------|----------------------------------------------------|
-----5----|--4----|----------------------------------------------------|


--5-------------------------|
-----------6--6-------------|
-----------------------5----|
----------------------------|
----------------------------|
----------------------------|


----------------------------------------------------|-------|----||
----------------------------------------------------|-------|----||
--5-------------------------------------------------|-------|----||
--------------------7-----7-----------------5--3----|--5----|----||
----------------------------------------------------|-------|----||
----------------------------------------------------|-------|----||
Tap to rate this tab
 
# A B C D E F G H I J K L M N O P Q R S T U V W X Y Z