Guitaretab - guitar tabs
Song name
# A B C D E F G H I J K L M N O P Q R S T U V W X Y Z

Bon Jovi - Because We Can tab

Title: Because We Can
SubTitle: Solo
Artist: Bon Jovi
Album: What About Now
Tempo = 110
Electric Guitar

Legend
L - tied note
x - dead note
h - hammer on/pull off
b - bend
s - slide
~ - vibrato
g - ghost note
> - accentuated note
t - trill
M - palm mute
. - staccato
P - popping (bass)
S - slapping (bass)
+ - tapping
W - wide vibrato
< - fade in
w - whammy bar
= - tremolo picking
v - brush up
^ - brush down
V - pick stroke up
n - pick stroke down


E |--5--------5----|
B |--6--6----------|
G |--5-----5-------|
D |----------------|
A |----------------|
E |----------------|


--5h-6-----------------------------------------------------------------------6--|
-----------------------------6--------------------------------------------------|
-----------------------------------------------------5--------------------------|
--------------------------------------------------------------------------------|
--------------------------------------------------------------------------------|
--------------------------------------------------------------------------------|


---------------------5----------------------------------------------------------|
---------------------------------------------6----------------------------------|
---------------------------------------------------------------------5----------|
--------------------------------------------------------------------------------|
--------------------------------------------------------------------------------|
--------------------------------------------------------------------------------|


---------------------------------------|
---------------------------------------|
---------------------------------------|
---------------------------------------|
---------------------------------------|
---------------------------------------|


--5--6-----------------------------------------------------------------------6--|
-----------------------------6--------------------------------------------------|
-----------------------------------------------------5--------------------------|
--------------------------------------------------------------------------------|
--------------------------------------------------------------------------------|
--------------------------------------------------------------------------------|


---------------------5----------------------------------------------------------|
---------------------------------------------6----------------------------------|
---------------------------------------------------------------------5----------|
--------------------------------------------------------------------------------|
--------------------------------------------------------------------------------|
--------------------------------------------------------------------------------|

[ Tab from: http://www.guitaretab.com/b/bon-jovi/347299.html ]
---------------------------------------|--3--5--3-----3-------------|
---------------------------------------|--5--5--5--6-----5----------|
---------------------------------------|--------------------5-------|
---------------------------------------|----------------------------|
---------------------------------------|----------------------------|
---------------------------------------|----------------------------|


--5--------5----|
--6--6----------|
--5-----5-------|
----------------|
----------------|
----------------|


--5h-6-----------------------------------------------------------------------6--|
-----------------------------6--------------------------------------------------|
-----------------------------------------------------5--------------------------|
--------------------------------------------------------------------------------|
--------------------------------------------------------------------------------|
--------------------------------------------------------------------------------|


---------------------5----------------------------------------------------------|
---------------------------------------------6----------------------------------|
---------------------------------------------------------------------5----------|
--------------------------------------------------------------------------------|
--------------------------------------------------------------------------------|
--------------------------------------------------------------------------------|


---------------------------------------|
---------------------------------------|
---------------------------------------|
---------------------------------------|
---------------------------------------|
---------------------------------------|


--5h-6-----------------------------------------------------------------------6--|
-----------------------------6--------------------------------------------------|
-----------------------------------------------------5--------------------------|
--------------------------------------------------------------------------------|
--------------------------------------------------------------------------------|
--------------------------------------------------------------------------------|


---------------------5----------------------------------------------------------|
---------------------------------------------6----------------------------------|
---------------------------------------------------------------------5----------|
--------------------------------------------------------------------------------|
--------------------------------------------------------------------------------|
--------------------------------------------------------------------------------|


---------------------------------------|----------------------------|
---------------------------------------|--------------------3--4----|
---------------------------------------|-----------2--3--5----------|
---------------------------------------|--2--3--5-------------------|
---------------------------------------|----------------------------|
---------------------------------------|----------------------------|


--------------------8b10--------8--5-------------------|-------||
--5-----------------------------------8b10rb8--6-------|--6----||
--------------------------------------------------7----|-------||
-------------------------------------------------------|-------||
-------------------------------------------------------|-------||
-------------------------------------------------------|-------||
Related for Because We Can tab
Because We Can chords by Bon Jovi