Song name
# A B C D E F G H I J K L M N O P Q R S T U V W X Y Z

Bon Jovi - Whats Left Of Me tab

Title: What's Left Of Me
SubTitle: Solo
Artist: Bon Jovi
Album: What About Now
Tempo = 127
Electric Guitar

Legend
L - tied note
x - dead note
h - hammer on/pull off
b - bend
s - slide
~ - vibrato
g - ghost note
> - accentuated note
t - trill
M - palm mute
. - staccato
P - popping (bass)
S - slapping (bass)
+ - tapping
W - wide vibrato
< - fade in
w - whammy bar
= - tremolo picking
v - brush up
^ - brush down
V - pick stroke up
n - pick stroke down


E |-----------------------------------------------------------------------------|
B |-----------------------------------------------------------------------------|
G |-----------------------------------------------------------------------------|
D |-----------------7-----------7-----------------------7-----------------------|
A |--7--9-----------------------------------9-----------------------------------|
E |-----------------------------------------------------------------------------|


--------------------------|----------------------------|
--------------------------|----------------------------|
--------------------------|----------------------------|
9-----------7-------------|-/11-x--9-----------7-------|
--------------------------|-----------------------9----|
--------------------------|----------------------------|


--------------------------------------------------------------------------------|
--------------10----------10----------------------------------------------------|
--------------9-----------9h-11-------------------------------------------------|
--/11------------------------------------11------------------------------11\9---|
--------------------------------------------------------------------------------|
--------------------------------------------------------------------------------|


-----------------------|
-----------------------|
-----------------------|
---------7-------------|
-----------------------|
-----------------------|


--------------------------------------------------------------------------------|
--------------------------------------------------------------------------------|
--------------------------------------------------------------------------------|
-----------------7-----------7-----------------------7--------------------------|
--7h-9-----------------------------------9-----------------------------------9--|
--------------------------------------------------------------------------------|


-----------------------|
-----------------------|
-----------------------|
-----------------------|
---------7-------------|
-----------------------|


--------------------------------------------------------------------------------|
--------------10----------10----------------------10-------------------------10-|
--------------9-----------9-----------------------9h-11----------------------9--|
-/11----------------------------------11----------------------------------------|
--------------------------------------------------------------------------------|
--------------------------------------------------------------------------------|


-----------------------|
---------10------------|
---------11h---9\------|
-----------------------|
-----------------------|
-----------------------|


--------------------------------------------------------------------------------|
--------------------------------------------------------------------------------|
--------------9-----------9-----------------------9--------------------------9--|
--------------9-----------9-----------------------9h-11----------------------9--|
--/11---------------------------------11----------------------------------------|
--------------------------------------------------------------------------------|


-----------------------|
-----------------------|
-----------------------|
---------11\-----------|
-----------------------|
-----------------------|


--------------------------------------------------------------------------------|
--------------------------------------------------------------------------------|
--------------------------------------------------------------------------------|
-----------------7-----------7-----------------------7-----------------------9--|
--7h-9-----------------------------------9--------------------------------------|
--------------------------------------------------------------------------------|


-----------------------|----------------|----|----||
-----------------------|----------------|----|----||
-----------------------|-----11---------|----|----||
---------7-------------|-/12-12---------|----|----||
-----------------------|----------------|----|----||
-----------------------|----------------|----|----||
Tap to rate this tab
 
# A B C D E F G H I J K L M N O P Q R S T U V W X Y Z