Song name
# A B C D E F G H I J K L M N O P Q R S T U V W X Y Z

Bon Jovi - Because We Can tab

e-5-----5-|5H6------6-5------|-5H6------6-5------|-3-5-3---3-------|
B---6-----|----6--------6----|-----6--------6----|-------6--5------|
G-----5---|------5--------5--|--------5-------5--|------------5----|
D---------|------------------|-------------------|-----------------|
A---------|------------------|-------------------|-----------------|
E---------|------------------|-------------------|-----------------|

e-5-----5-|5H6------6-5------|-5H6------6-5------|-----------------|---|
B---6-----|----6--------6----|-----6--------6----|-------------3-4-|5--|
G-----5---|------5--------5--|--------5-------5--|-------2-3-5-----|---|
D---------|------------------|-------------------|-2-3-5-----------|---|
A---------|------------------|-------------------|-----------------|---|
E---------|------------------|-------------------|-----------------|---|

e----10----------------|
B-13^---13-10----------|
G-------------12^-10---|
D----------------------|
A----------------------|
E----------------------|
Tap to rate this tab
# A B C D E F G H I J K L M N O P Q R S T U V W X Y Z