Song name
# A B C D E F G H I J K L M N O P Q R S T U V W X Y Z

Bon Jovi - Who Says You Cant Go Home chords

Highlighted       Show chord diagrams
h = hammer on
/ = slide up
\ = slide down
p = pull off

  G  Cadd9  A7sus4  Bm   Em   D *
|-3----3------3-----2----0----2(3)-|
|-3----3------3-----3----0----3----|
|-0----0------0-----4----0----2----|
|-0----2------2-----4----2----0----|
|-2----3------0-----2----2----0----|
|-3----x------x-----2----0----x----|


Intro/chorus riff (Guitar 1)
|--------3--------------|
|------3----3-3h5-3---3-|
|-4h5---------------5---|
|-----------------------|
|-----------------------|
|-----------------------|


|-------3-------------|
|-----3---3-3h5-3-----|
|-4h5-------------5-4-|
|---------------------|
|---------------------|
|---------------------|


|-------3---------------|
|-----3---3-3h5-3-------|
|-4h5-------------5-4-2-|
|-----------------------|
|-----------------------|
|-----------------------|


INTRO (Guitar 2)

G            C             A7sus4            C       (x2)


VERSE
G                           Cadd9
I spent twenty years trying to get out of this place
A7sus4                        Cadd9
I was looking for something I couldn't replace
G                          Cadd9          D *
I was running away from the only thing I've ever known
    G           Cadd9
Like a blind dog without a bone
A7sus4                  Cadd9
I was a gypsy lost in the twilight zone
G                       Cadd9              D *
I hijacked a rainbow and crashed into a pot of gold


BRIDGE
Em                        Cadd9               G
I been there, done that, I ain't looking back at the seeds I've sown
Bm                    Cadd9                    D *
Saving dimes spending too much time on the telephone

Who says you can't go home


CHORUS (Guitar 2)
G           Cadd9
Who says you can't go home
A7sus4                             Cadd9
There's only one place they call me one of their own
G               Cadd9          D *
Just a hometown boy born a rolling stone

Who says you can't go home
G           Cadd9
Who says you can't go back
A7sus4                      Cadd9
Been all around the world and as a matter of fact
G                     Cadd9          D *
There's only one place left I want to go

Who says you can't go home
G                   Cadd9             A7sus4          Cadd9
It's alright, it's alright, it's alright, it's alright, it's alright


VERSE
G                           Cadd9
I went as far as I could, I tried to find a new face
A7sus4                           Cadd9
There isn't one of these lines tht I would erase
G                          Cadd9           D *
I lived a million miles of memories on that road
G                        Cadd9
With every step I take I know that I'm not alone
A7sus4                         Cadd9
You take the home from the boy but not the boy from his home
G                     Cadd9               D *
These are my streets, the only life I've ever known

Who says you can't go home


CHORUS (Guitar 2)
G           Cadd9
Who says you can't go home
A7sus4                              Cadd9
There's only one place they call me one of their own
G               Cadd9          D *
Just a hometown boy born a rolling stone

Who says you can't go home
G           Cadd9
Who says you can't go back
A7sus4                      Cadd9
Been all around the world and as a matter of fact
G                     Cadd9            D *
There's only one place left I want to go

Who says you can't go home
G                   Cadd9          A7sus4              Cadd9
It's alright, it's alright, it's alright, it's alright, it's alright

Who says you can't go home
G                   Cadd9          A7sus4              Cadd9
It's alright, it's alright, it's alright, it's alright, it's alright

Who says you can't go home


SOLO
|----------------------------------------------------------------|
|-13-13-13-13-13-12-12-13-12----------13-13-13-13-13-12-12-13-12-|
|-12-12-12-12-12-12-12-12-12-14-12-12-12-12-12-12-12-12-12-12-12-|
|-14-14-14-14-14-12-12-14-12----------14-14-14-14-14-12-12-14-12-|
|----------------------------------------------------------------|
|----------------------------------------------------------------|

|-----------------------------------------------------------------|
|-10/12\10-8-12-12-10-10-8-8-13-13-12-12-10-10-12-10-12h-10p------|
|------------0--0--0--0--0-0-0--0--0--0--0--0--0--0--0---0--------|
|-10/12\10-9-------------------------------------------------12-9-|
|-----------------------------------------------------------------|
|-----------------------------------------------------------------|

|-----------------------------|
|----12----10---8---7---5---3-|
|-----------------------------|
|-12----10----9---7---5---4---|
|-----------------------------|
|-----------------------------|


BRIDGE
Em                        Cadd9               G
I been there, done that, I ain't looking back, its been a long, long road
Bm                    Cadd9                    D *
Feels like I never left, that's how the story goes

OUTRO
G                                Cadd9
It doesn't matter where you are, it doesn't matter where you go
A7sus4                       Cadd9
If it's a million miles away or just a mile up the road
G           Cadd9                D *
Take it in, take it with you when you go

Who says you can't go home


CHORUS (Guitar 2)
G           Cadd9
Who says you can't go home
A7sus4                            Cadd9
There's only one place they call me one of their own
G               Cadd9          D *
Just a hometown boy born a rolling stone

Who says you can't go home
G           Cadd9
Who says you can't go back
A7sus4                      Cadd9
Been all around the world and as a matter of fact
G                 Cadd9               D *
There's only one place left I want to go

Who says you can't go home

G                   Cadd9           A7sus4             Cadd9
It's alright, it's alright, it's alright, it's alright, it's alright

G                   Cadd9           A7sus4             Cadd9
It's alright, it's alright, it's alright, it's alright, it's alright

Who says you can't go home
G                   Cadd9           A7sus4             Cadd9
It's alright, it's alright, it's alright, it's alright, it's alright

Who says you can't go home
G                   Cadd9           A7sus4             Cadd9
It's alright, it's alright, it's alright, it's alright, it's alright

Who says you can't go home
G                   Cadd9           A7sus4             Cadd9
It's alright, it's alright, it's alright, it's alright, it's alright

Who says you can't go home
G                   Cadd9           A7sus4             Cadd9
It's alright, it's alright, it's alright, it's alright, it's alright

Who says you can't go home
G
Tap to rate this tab
# A B C D E F G H I J K L M N O P Q R S T U V W X Y Z