Song name
# A B C D E F G H I J K L M N O P Q R S T U V W X Y Z

Bon Jovi - I Will Be There For You tab

Bon Jovi - I'll Be There For You
Tabbed by:  Shaun Geisert
Verse 
X2
G|--------------------------|
D|--------------------------|
A|-5-455-4-2-22-------0-3-5-|
E|-------------023-33----3--|
Verse 

2
G|-----------------------------------------|
D|-----------------------------------------|
A|---------2-4-5-4-42-22-2-0---------------|
E|-3-33-35--------------2---3-33-33-33-025-|
Chorus X2
G|--------------------------|
D|--------------------------|
A|-5-455-4-2-22-------0-3-5-|
E|-------------023-33----3--|
Outro
G|--------------------------------------------------------------------------|
D|--------------------------------------------------------------------------|
A|--7-6-4-244-2-0-00-012-5-0--7-7-6-4-244-2-0-00-012-50-----234-44-2-0-00-02|
E|-0-------------0----------0----------------0---------0-00-----------0-----|
Chorus X2
G|------------------------------|
D|------------------------------|
A|-5-0---2-4-244-2-0--0-2--5-0--|
E|----0-0------------0---------0|
Tap to rate this tab
# A B C D E F G H I J K L M N O P Q R S T U V W X Y Z