Song name
# A B C D E F G H I J K L M N O P Q R S T U V W X Y Z

Bon Jovi - Id Die For You tab

h=hammer on
p=pull off
/=slide up
\=slide down
b=bend
x=mute
intro:
|-------------------------------------------------------------------------|
|-------------------------------------------------------------------------|
|---------------------------9--9--7------------------------------9--9--7--|
|-2------2------------------10-10-9-----2------2-----------------10-10-9--| 
|-0------0-3--xx5-----------------------0------0-3--xx5-------------------|
|----------1--xx3--------------------------------1--xx3-------------------|

|-------------------------------------------------------------------------|
|-------------------------------------------------------------------------|
|---------------------------2-4--------------------9--9--7----------------|
|--------------------------------------------------10-10-9----------------|
|-0-2-3----0---0-2-----2--------3-----0-5---------------------------------|
|------1-3---3-----0-3------------1-3---3---------------------------------|

verse:
|-------------------------------------------------------------------------|
|-------------------------------------------------------------------------|
|-------------------------------------------------------------------------|
|-2-2---------------------------------------------------------------------|
|-0-0---------------------------------------------------------------------|
|-------------------------------------------------------------------------|

|-------------------------------------------------------------------------|
|-------------------------------------------------------------------------|
|-------------------------------------------------------------------------|
|-2-2---------------------------------------------------------------------|
|-0-0---------3-----------5-5------------2--------------------------------|
|-------------1-----------3-3------------0--------------------------------|

pre-chorus:
|-------------------------------------------------------------------------|
|-------------------------------------------------------------------------|
|-------------------------------------------------------------------------|
|------------------------5-5----------------------------------------------|
|-3------7-7--5-5--3-----3-3--5-5--3------7-7--5-5--3-------2-------------|
|-1------5-5--3-3--1----------3-3--1------5-5--3-3--1-------0-------------|

chorus:
|-------------------------------------------------------------------------|
|-------------------------------------------------------------------------|
|--------------------------------------------------9--9--7----------------|
|--------------------------------------------------10-10-9----------------|
|-0-2-3----0---0-2-----2------0-2-3-----0-5-------------------------------|
|------1-3---3-----0-3-------------1-3----3-------------------------------|

|-------------------------------------------------------------------------|
|-------------------------------------------------------------------------|
|--------------------------------------------------9--9--7----------------|
|--------------------------------------------------10-10-9----------------|
|-0-2-3----0---0-2-----2------0-2-3-----0-5-------------------------------|
|------1-3---3-----0-3-------------1-3----3-------------------------------|

verse:
|-----------------------------------------------------5-------------------|
|--------------------------------------------------5h7--------------------|
|-----------------------------------------------5h7-----------------------|
|-2-2---------------------------------------------------------------------|
|-0-0----------3---------5-5---------2------------------------------------|
|--------------1---------3-3---------0------------------------------------|

|-------------------------------------------------------------------------|
|-------------------------------------------------------------------------|
|-------------------------------------------------------------------------|
|-2-2-2-2-----2-2-2-2-----2-2-2---3-3-3-3-----3-3-3-3-----3-3-3---5-5-5-5-|
|-0-0-0-0-0-0-0-0-0-0-0-0-0-0-0-0-3-3-3-3-----3-3-3-3-----3-3-3---5-5-5-5-|
|-----------------------------------------1-1---------1-1-------1---------|

|----------------------------0--------------------------------------------|
|----------------------------0--------------------------------------------|
|-------------------------------------------------------------------------|
|-----5-5-5-5-----5-5-5---------------------------------------------------|
|-----5-5-5-5-----5-5-5---2-----2-----------------------------------------|
|-3-3---------3-3---------0-----0-----------------------------------------|

pre-chorus:
|-------------------------------------------------------------------------|
|-------------------------------------------------------------------------|
|-------------------------------------------------------------------------|
|------------------------5-5----------------------------------------------|
|-3------7-7--5-5--3-----3-3--5-5--3------7-7--5-5--3-------2-------------|
|-1------5-5--3-3--1----------3-3--1------5-5--3-3--1-------0-------------|

chorus:
|-------------------------------------------------------------------------|
|-------------------------------------------------------------------------|
|--------------------------------------------------9--9--7----------------|
|--------------------------------------------------10-10-9----------------|
|-0-2-3----0---0-2-----2------0-2-3-----0-5-------------------------------|
|------1-3---3-----0-3-------------1-3----3-------------------------------|

|-------------------------------------------------------------------------|
|-------------------------------------------------------------------------|
|--------------------------------------------------9--9--7----------------|
|--------------------------------------------------10-10-9----------------|
|-0-2-3----0---0-2-----2------0-2-3-----0-5-------------------------------|
|------1-3---3-----0-3-------------1-3----3-------------------------------|

i dont know the solo yet but this is were it goes

alternate pre-chorus:
|-------------------------------------------------------------------------|
|-------------------------------------------------------------------------|
|-------------------------------------------------------------------------|
|-2-2-2-2-----------------------------2-2-2-2-----------------------------|
|-0-0-0-0-----3-----5-5-5-5-----2-----0-0-0-0-----3-----5-5-5-5-5-5-5-5---|
|-------------1-----3-3-3-3-----0-----------------1-----3-3-3-3-3-3-3-3---|

|-------5-----------------------------------------------------------------|
|----5hp------------------------------------------------------------------|
|-5hp---------------------------------------------------------------------|
|-------------------------------------------------------------------------|
|-------------------------------------------------------------------------|
|-------------------------------------------------------------------------|

chorus:
|-------------------------------------------------------------------------|
|-------------------------------------------------------------------------|
|-------------------------------------------------12\---------------------|
|-------------------------------------------------12\---------------------|
|-0-2-3----0---0-2-----2------0-2-3-----0-5-------------------------------|
|------1-3---3-----0-3-------------1-3----3-------------------------------|

|-------------------------------------------------------------------------|
|-------------------------------------------------------------------------|
|--------------------------------------------------9--9--7----------------|
|--------------------------------------------------10-10-9----------------|
|-0-2-3----0---0-2-----2------0-2-3-----0-5-------------------------------|
|------1-3---3-----0-3-------------1-3----3-------------------------------|

|-------------------------------------------------------------------------|
|-------------------------------------------------------------------------|
|-------------------------------------------------------------------------|
|-------------------------------------------------------------------------|
|-0-2-3----0---0-2-----2------0-2-3-----0-5-------2-----------------------|
|------1-3---3-----0-3-------------1-3----3-------0-----------------------|

Tap to rate this tab
 
# A B C D E F G H I J K L M N O P Q R S T U V W X Y Z