Guitaretab - guitar tabs
Song name
# A B C D E F G H I J K L M N O P Q R S T U V W X Y Z

Bon Jovi - I Could Make A Living Out Of Loving You tab

Bon Jovi  I could make a living out of loving you


Intro
[ Tab from: http://www.guitaretab.com/b/bon-jovi/36372.html ]
Guitar 1:
e|-------------------------------------------------------|
B|-------------------------------------------------------|
G|---------------3-3---5-5-----3--3---5-5----------------|
D|--3-3--5-5----3-3---5-5-----3--3---5-5----3-3---5-5---|
A|--3-3--5-5----1-1---3-3-----1--1---3-3----3-3---5-5---|
E|--1-1--3-3--------------------------------1-1---3-3---| (2x)


Guitar 2: (second time only)

e|------------------------------------------------------------|
B|------------8-------------11p8----11p8---------6-------8----|
G|-------------------------------------------------8--5-------|
D|------------------------------------------------------------|
A|------------------------------------------------------------|
E|------------------------------------------------------------|
Related for I Could Make A Living Out Of Loving You tab