Song name
# A B C D E F G H I J K L M N O P Q R S T U V W X Y Z

Bon Jovi - In These Arms tab

Bon Jovi - In These Arms

Tabbed by Avi Yaacov
Israel, August 8, 2013


Intro:

e|--0-----0--------0-----0------|
B|--0-----0--------0-----0------|
G|--1-----2--------1-----2------|
D|--2-----2--------2-----2------|
A|--2-----0--------2-----0------|
E|--0--------------0------------|


Verse Riff:

     E                   A
e|-----------------------0------|
B|---9---------9---------10-----|
G|---9------^----11-9----9------| X2
D|---9-----^-------------11-----|
A|---11---^--------------0------|
E|---0---^----------------------|       (the ^ means pluck the chord  
                                          again with the emphasis                      
                                            on the B-9 note at the end)

     C#m              A             B
e|-----------------------0------|---7---|
B|---9---------9---------10-----|---7---|
G|---9------^----11-9----9------|---8---|
D|---11----^-------------11-----|---9---|
A|---11---^--------------0------|---9---|
E|---9---^----------------------|---7---|


Chorus:
    E              B             C#m              A
e|--0-0---------|--2-2---------|--4------------|--5----|
B|--0-0---------|--4-4---------|--5-5p4---4h5--|--5----|
G|--1-1---------|--4-4---------|--6-6---6-6----|--6----|
D|--2-2---------|--4-4---------|--6-6-----6----|--7----|
A|--2-2---------|--2-2--2-4-6--|--4------------|--0----|
E|--0-0--0-2-4--|--------------|---------------|-------|

then:    E / C#m / B / A


    E              B             C#m              A
e|--0-0---------|--2-2---------|--4------------|--5----|
B|--0-0---------|--4-4---------|--5-5p4---4h5--|--5----|
G|--1-1---------|--4-4---------|--6-6---6-6----|--6----|
D|--2-2---------|--4-4---------|--6-6-----6----|--7----|
A|--2-2---------|--2-2--2-4-6--|--4------------|--0----|
E|--0-0--0-2-4--|--------------|---------------|-------|


    E           E/G#         Bsus4  B       A
e|--0--0----|---0--0-----|---2------2---|---0---|
B|--0--0----|---0--0-----|---5------4---|---2---|
G|--1--1----|---1--1-----|---4------4---|---2---|
D|--2--2----|---2--2-----|---4------4---|---2---|
A|--2--2----|---x--x-----|---2------2---|---0---|
E|--0--0----|---4--4-----|--------------|-------|



Thingy before moving to the bridge:
     E     Esus4  E
e|---0--0----0----0------|   
B|---0--0----0----0------|
G|---1--1----2----1------|
D|---2--2----2----2------|   
A|---2--2----2----2------|
E|---0--0----0----0------|



Solo

e|--------------|------------------|------------------------------|
B|--------------|------------------|------------------------------|
G|-------9vvvv--|--11b--11p9-11vv--|--18vv---16h18p16-------------|
D|--9h11--------|------------------|-------------------18p16h18---|
A|--------------|------------------|------------------------------|
E|--------------|------------------|------------------------------|

e|-------------------------------------------|
B|-------------------------------------------|
G|--18-18--16h18p16--------------------------|
D|------------------18p16--16p14--------14---|
A|--------------------------------14h16------|
E|-------------------------------------------|

e|------------------------------------|
B|--------17-19bbb--19bb--19p17-19b---|
G|--16/18-----------------------------|
D|------------------------------------|
A|------------------------------------|
E|------------------------------------|

e|--------------------|---------------------------------------------------| 
B|--21bb---21b--19b---|--19p17----17--------------------------------------|
G|--------------------|--------18----18p16-18p16----16--------------------| 
D|--------------------|--------------------------18----18p16/14-16p14-----|
A|--------------------|-----------------------------------------------16--|
E|--------------------|---------------------------------------------------|
                       this last bar is not what he actually plays,
                       ainít gonna tab that, itís a fast ďback dropĒ thingy,
                        but itís around these notes.

  ďand these were our words...Ē    ďbaby!Ē
e|----------------------------|   |------------|-----------------|
B|----------------------------|   |------------|-----------------|
G|----------------------------|   |--16b17r16--|--16^------------|
D|--16vvv-16vvv---------------|   |------------|------16^--14vv--|
A|----------------------------|   |------------|-----------------|
E|----------------------------|   |------------|-----------------|
                                   this bar ainít
                                   played, but itís sounds good
Tap to rate this tab
# A B C D E F G H I J K L M N O P Q R S T U V W X Y Z