Song name
# A B C D E F G H I J K L M N O P Q R S T U V W X Y Z

Bon Jovi - We Got It Going On tab

Tabbed by.....Fendarman
song by.......Bon Jovi
Tab video by..Mike Gross

***IMPORTANT***
This is the tab of Mike Gross and i got it
from his teaching video on youtube, you should
check out his channel "Mike Gross" on you tube

Song owned by Bon Jovi

Hope you enjoy!!!

We got it going on

Legend

B = bend
^ = Upstroke
. = Palm mute
! = Natural Harmonics (see bottom of tab)


Gitr 1/Bass = clean (no distortion)
Gitr 2 = heavy distortion



Intro  Gitr 1

C|--0----0--5b--3-|--0-0----0--5b--3-|
G|----------------|------------------|
C|----0^----------|------0^----------|
F|----------------|------------------|
A|----------------|------------------|
D|----------------|------------------|
       (1X)                (3X)


Verse  Gitr 2

    . .     .   . . .    . . .     .   . . .
C|--0-------0---6-5-3-|--0-0-------0---6-5-3-|
G|--0-0--5--0---6-5-3-|--0-0-0--5--0---6-5-3-|
C|-------7------------|---------7------------|
F|--------------------|----------------------|
A|--------------------|----------------------|
D|--------------------|----------------------|
        (1X)                    (3X)


Pre-chorus  Gitr 2

C|-5555555555555555-888888888888-8-8--|
G|-5555555555555555-888888888888-8-8--|
C|-5555555555555555-888888888888-8-8--|
F|------------------------------------|
A|------------------------------------|
D|------------------------------------|


C|-0--4!4!--3!3!-2!2!--|
G|----4!4!--3!3!-2!2!--|
C|---------------------|
F|---------------------|
A|---------------------|
D|---------------------|



Natural Harmonics

Lightly place finger on the bar of the fret specified. should get kind of a squeaky sound


There you go, the wicked awesome intro to "We Got it Going on"
have a nice day :D
Tap to rate this tab
# A B C D E F G H I J K L M N O P Q R S T U V W X Y Z