Song name
# A B C D E F G H I J K L M N O P Q R S T U V W X Y Z

Bon Jovi - Santa Fe tab

Intro tab for Santa Fe. This is the violin part!

 G                         D                        Em
:-------------------------:------------------------:---------------------------------------------:
:------12-13-15-13-12-----:--------10-13-12-10-----:----------12-10--------------10-12-10--------:
:---14----------------14~-:--11-12-------------12~-:--9-11-12-------12-11-9-11-12---------12-11~-:
:-------------------------:------------------------:---------------------------------------------:
:-------------------------:------------------------:---------------------------------------------:
:-------------------------:------------------------:---------------------------------------------:



 Am                        C                         D
:------------12-10--------:-----------10------------:--------------------------------------3-----:
:---10-12-13-------13-12~-:--10-12-13----13-12-10~~-:--------------------------------------3-----:
:-------------------------:-------------------------:--12-11-9-----------------------------0-----:
:-------------------------:-------------------------:----------12-10-9---------------------0-----:
:-------------------------:-------------------------:------------------12-10-9-------------2-----:
:-------------------------:-------------------------:--------------------------12-10-8-7-5-3-----:
Tap to rate this tab
 
# A B C D E F G H I J K L M N O P Q R S T U V W X Y Z